save to print version add songbook text version e-mail correct tuner
chordsukulelecavacokeyboardtabbassdrumsharmonicaflute Guitar Pro
close

there isn't a video lesson for this song

chords

Ghost

	  		Intro 

e|------------------------------------------------| 
B|------------------------------------------------| 
G|--5----h7--p5--h7--p5------5---h7--p5----5------| 
D|--5------------------------5-------------4------|   X2 
A|--6--6------------------6------------6---5------| 
E|------------------------------------------------| 

Verse 

e|--------------5---1--------------------------------------------------------| 
B|-(6)-(6)-(6)--3---1---13---------------10---8------------------------------| 
G|--5---5---5---3---1---13---5---5---5---10---7------------------------------| 
D|--5---4---3---3---1---12---5---4---3---8----7------------------------------| 
A|--6---5---5---5---3---13---6---5---5---10---8------------------------------| 
E|--------------3---1--------------------------------------------------------| 

e|--------------5---1--------------------------------------------------------| 
B|--------------3---1---13---------------10---3------------------------------| 
G|--5---5---5---3---1---13---5---5---5---10---3------------------------------| 
D|--5---4---3---3---1---12---5---4---3---8----2------------------------------| 
A|--6---5---5---5---3---13---6---5---5---10----------------------------------| 
E|--------------3---1-------------------------3------------------------------| 

Chorus 

e|---------------------------------------------------------------------------| 
B|---------------------------------------------------------------------------| 
G|--3---3---3---5---------------5--------------------------------------------| 
D|--1---1---1---5---5---0---5---5--------------------------------------------| 
A|--3-------3---6---5---0---5------------------------------------------------| 
E|------3-----------6--\1--/6---5--------------------------------------------| 



************************************ 

| /   slide up 
| \   slide down 
| h   hammer-on 
| p   pull-off 
| ~   vibrato 
| +   harmonic 
| x   Mute note 
| b   Bend 
| pb  Pre-bend 
| br  Bend release 
| pbr Pre-bend release 
| brb Bend release bend 

************************************ 
		  

See also:

tabs Gloria Gaynor - I Will Survive tabs Craig David - 7 Days tabs The Libertines - Up The Bracket tabs Craig David - Spanish tabs Genesis - Mama tabs Craig David - 7 Days Acoustic
e-chords

Other versions:

tabs Pearl Jam - Ghost tabs Regurgitator - Ghost tabs The Academy Is - Ghost tabs Slash - Ghost tabs Parachute Band - Ghost tabs Lianne La Havas - Ghost
auto scroll beats size up size down change color hide chords drawings
tab show chords e-chords YouTube Clip e-chords hide all tabs e-chords go to top tab

share