Less Than Jake

Bomb Drop

Less Than Jake

tabs

by  DEIVCAVALCANTI

save to print version add songbook text version e-mail correct tuner
chordsukulelecavacokeyboardtabbassdrumsharmonicaflute Guitar Pro
close

there isn't a video lesson for this song

chords

Bomb Drop

	  		Intro 

E|---------------------------------------------------------------------------| 
B|---------------------------------------------------------------------------| 
G|-10-10-10-10-10-10---10-10-10-10-10-10---9--7--5--5-5-5-5-5---7--7-7-7-7-7-| 
D|-10-10-10-10-10-10---10-10-10-10-10-10---9--7--5--5-5-5-5-5---7--7-7-7-7-7-| 
A|--8--8--8--8--8--8----8--8--8--8--8--8---7--5--3--3-3-3-3-3---5--5-5-5-5-5-| 
E|---------------------------------------------------------------------------| 

E|-----------------------------------------------------------------------------| 
B|-----------------------------------------------------------------------------| 
G|-10-10-10-10-10-10---10-10-10-10-10-10-----------5--5-5-5-5-5---7--7-7-7-7-7-| 
D|-10-10-10-10-10-10---10-10-10-10-10-10---10---5--5--5-5-5-5-5---7--7-7-7-7-7-| (3x) 
A|--8--8--8--8--8--8----8--8--8--8--8--8---10---5--3--3-3-3-3-3---5--5-5-5-5-5-| 
E|------------------------------------------8---3------------------------------| 

E|-------------------------| 
B|-------------------------| 
G|--------------------5----| 
D|-3--3--3-3-3-3-3-3--5--5-| 
A|-3--3--3-3-3-3-3-3--3--5-| 
E|-1--1--1-1-1-1-1-1-----3-| 

Primeira Parte 

E|-------------------------------------------------------------------------------| 
B|-------------------------------------------------------------------------------| 
G|-------------------5-x-5-x---------------------------------5-x-5-x-------------| 
D|-3-3-3-3-3-3-3-3---5-x-5-x-5--5--5-5-5---3-3-3-3-3-3-3-3---5-x-5-x-5--5--5-5-5-| 
A|-3-3-3-3-3-3-3-3---3-x-3-x-5--5--5-5-5---3-3-3-3-3-3-3-3---3-x-3-x-5--5--5-5-5-| 
E|-1-1-1-1-1-1-1-1-----------3--3--3-3-3---1-1-1-1-1-1-1-1-----------3--3--3-3-3-| 

E|---------------------------------------------------------------------------| 
B|---------------------------------------------------------------------------| 
G|-------------------5-x-5-x---------------7-7-7-7-7-7-7-7-------------------| 
D|-3-3-3-3-3-3-3-3---5-x-5-x-5--5--5-5-5---7-7-7-7-7-7-7-7---3-3-3-3-5-5-5-5-| 
A|-3-3-3-3-3-3-3-3---3-x-3-x-5--5--5-5-5---5-5-5-5-5-5-5-5---3-3-3-3-5-5-5-5-| 
E|-1-1-1-1-1-1-1-1-----------3--3--3-3-3---------------------1-1-1-1-3-3-3-3-| 

Refrão 

E|---------------------------------------------------------------------------| 
B|-------------------------------------1-1-1-1-1-1-1-1-1---1-1-1-1-1-1-1-1-1-| 
G|-5-5-5-5-5-5-5-5---5-5-5-5-5-5-5-5---2-2-2-2-2-2-2-2-2---2-2-2-2-2-2-2-2-2-| 
D|-5-5-5-5-5-5-5-5---5-5-5-5-5-5-5-5---2-2-2-2-2-2-2-2-2---2-2-2-2-2-2-2-2-2-| 
A|-3-3-3-3-3-3-3-3---3-3-3-3-3-3-3-3---0-0-0-0-0-0-0-0-0---0-0-0-0-0-0-0-0-0-| 
E|---------------------------------------------------------------------------| 

E|-----------------------------------------------------------------------| 
B|-----------------------------------------------------------------------| 
G|-----------------------------------------------------------------------| 
D|-3-3-3-3-3-3-3-3---3-3-3-3-3-3-3-3---5-5-5-5-5-5-5-5---5-5-5-5-5-5-5-5-| 
A|-3-3-3-3-3-3-3-3---3-3-3-3-3-3-3-3---5-5-5-5-5-5-5-5---5-5-5-5-5-5-5-5-| 
E|-1-1-1-1-1-1-1-1---1-1-1-1-1-1-1-1---3-3-3-3-3-3-3-3---3-3-3-3-3-3-3-3-| 

E|---------------------------------------------------------------------------| 
B|-------------------------------------1-1-1-1-1-1-1-1-1---1-1-1-1-1-1-1-1-1-| 
G|-5-5-5-5-5-5-5-5---5-5-5-5-5-5-5-5---2-2-2-2-2-2-2-2-2---2-2-2-2-2-2-2-2-2-| 
D|-5-5-5-5-5-5-5-5---5-5-5-5-5-5-5-5---2-2-2-2-2-2-2-2-2---2-2-2-2-2-2-2-2-2-| 
A|-3-3-3-3-3-3-3-3---3-3-3-3-3-3-3-3---0-0-0-0-0-0-0-0-0---0-0-0-0-0-0-0-0-0-| 
E|---------------------------------------------------------------------------| 

E|-----------------------------------------------------------------------| 
B|-----------------------------------------------------------------------| 
G|-----------------------------------------------------------------------| 
D|-3-3-3-3-3-3-3-3---3-3-3-3-3-3-3-3---5-5-5-5-5-5-5-5---5-5-5-5-5-5-5-5-| 
A|-3-3-3-3-3-3-3-3---3-3-3-3-3-3-3-3---5-5-5-5-5-5-5-5---5-5-5-5-5-5-5-5-| 
E|-1-1-1-1-1-1-1-1---1-1-1-1-1-1-1-1---3-3-3-3-3-3-3-3---3-3-3-3-3-3-3-3-| 

Segunda Parte 

E|-------------------------------------------------------------------------------| 
B|-------------------------------------------------------------------------------| 
G|-------------------5-x-5-x---------------------------------5-x-5-x-------------| 
D|-3-3-3-3-3-3-3-3---5-x-5-x-5--5--5-5-5---3-3-3-3-3-3-3-3---5-x-5-x-5--5--5-5-5-| 
A|-3-3-3-3-3-3-3-3---3-x-3-x-5--5--5-5-5---3-3-3-3-3-3-3-3---3-x-3-x-5--5--5-5-5-| 
E|-1-1-1-1-1-1-1-1-----------3--3--3-3-3---1-1-1-1-1-1-1-1-----------3--3--3-3-3-| 

E|---------------------------------------------------------------------------| 
B|---------------------------------------------------------------------------| 
G|-------------------5-x-5-x---------------7-7-7-7-7-7-7-7-------------------| 
D|-3-3-3-3-3-3-3-3---5-x-5-x-5--5--5-5-5---7-7-7-7-7-7-7-7---3-3-3-3-5-5-5-5-| 
A|-3-3-3-3-3-3-3-3---3-x-3-x-5--5--5-5-5---5-5-5-5-5-5-5-5---3-3-3-3-5-5-5-5-| 
E|-1-1-1-1-1-1-1-1-----------3--3--3-3-3---------------------1-1-1-1-3-3-3-3-| 

Interlúdio 

E|-----------------------------------------------------------------------------| 
B|-----------------------------------------------------------------------------| 
G|-10-10-10-10-10-10---10-10-10-10-10-10-----------5--5-5-5-5-5---7--7-7-7-7-7-| 
D|-10-10-10-10-10-10---10-10-10-10-10-10---10---5--5--5-5-5-5-5---7--7-7-7-7-7-| (3x) 
A|--8--8--8--8--8--8----8--8--8--8--8--8---10---5--3--3-3-3-3-3---5--5-5-5-5-5-| 
E|------------------------------------------8---3------------------------------| 

E|-----------------------------------5-5-5---------------| 
B|-----------------------------------5-5-5---------------| 
G|---------------------5-5-5---------5-5-5---------------| 
D|-3--3--3-3-3-3-3-3---5-5-5--7-7-7--7-7-7--8-8-8--3-3-3-| 
A|-3--3--3-3-3-3-3-3---3-3-3--7-7-7--7-7-7--8-8-8--3-3-3-| 
E|-1--1--1-1-1-1-1-1----------5-5-5--5-5-5--6-6-6--1-1-1-| 

E|---------------5-5-5---------------| 
B|---------------5-5-5---------------| 
G|-5-5-5---------5-5-5---------------| 
D|-5-5-5--7-7-7--7-7-7--8-8-8--3-3-3-| 
A|-3-3-3--7-7-7--7-7-7--8-8-8--3-3-3-| 
E|--------5-5-5--5-5-5--6-6-6--1-1-1-| 

Ponte 

E|---------------5-5-5-------------------------------5-5-5---------------| 
B|---------------5-5-5-------------------------------5-5-5---------------| 
G|-5-5-5---------5-5-5-----------------5-5-5---------5-5-5-----------10--| 
D|-5-5-5--7-7-7--7-7-7--8-8-8--3-3-3---5-5-5--7-7-7--7-7-7--------8--10--| 
A|-3-3-3--7-7-7--7-7-7--8-8-8--3-3-3---3-3-3--7-7-7--7-7-7--------8---8--| 
E|--------5-5-5--5-5-5--6-6-6--1-1-1----------5-5-5--5-5-5---15\--6------| 

Refrão 

E|---------------------------------------------------------------------------| 
B|-------------------------------------1-1-1-1-1-1-1-1-1---1-1-1-1-1-1-1-1-1-| 
G|-5-5-5-5-5-5-5-5---5-5-5-5-5-5-5-5---2-2-2-2-2-2-2-2-2---2-2-2-2-2-2-2-2-2-| 
D|-5-5-5-5-5-5-5-5---5-5-5-5-5-5-5-5---2-2-2-2-2-2-2-2-2---2-2-2-2-2-2-2-2-2-| 
A|-3-3-3-3-3-3-3-3---3-3-3-3-3-3-3-3---0-0-0-0-0-0-0-0-0---0-0-0-0-0-0-0-0-0-| 
E|---------------------------------------------------------------------------| 

E|-----------------------------------------------------------------------| 
B|-----------------------------------------------------------------------| 
G|-----------------------------------------------------------------------| 
D|-3-3-3-3-3-3-3-3---3-3-3-3-3-3-3-3---5-5-5-5-5-5-5-5---5-5-5-5-5-5-5-5-| 
A|-3-3-3-3-3-3-3-3---3-3-3-3-3-3-3-3---5-5-5-5-5-5-5-5---5-5-5-5-5-5-5-5-| 
E|-1-1-1-1-1-1-1-1---1-1-1-1-1-1-1-1---3-3-3-3-3-3-3-3---3-3-3-3-3-3-3-3-| 

E|---------------------------------------------------------------------------| 
B|-------------------------------------1-1-1-1-1-1-1-1-1---1-1-1-1-1-1-1-1-1-| 
G|-5-5-5-5-5-5-5-5---5-5-5-5-5-5-5-5---2-2-2-2-2-2-2-2-2---2-2-2-2-2-2-2-2-2-| 
D|-5-5-5-5-5-5-5-5---5-5-5-5-5-5-5-5---2-2-2-2-2-2-2-2-2---2-2-2-2-2-2-2-2-2-| 
A|-3-3-3-3-3-3-3-3---3-3-3-3-3-3-3-3---0-0-0-0-0-0-0-0-0---0-0-0-0-0-0-0-0-0-| 
E|---------------------------------------------------------------------------| 

E|-----------------------------------------------------------------------| 
B|-----------------------------------------------------------------------| 
G|-----------------------------------------------------------------------| 
D|-3-3-3-3-3-3-3-3---3-3-3-3-3-3-3-3---5-5-5-5-5-5-5-5---5-5-5-5-5-5-5-5-| 
A|-3-3-3-3-3-3-3-3---3-3-3-3-3-3-3-3---5-5-5-5-5-5-5-5---5-5-5-5-5-5-5-5-| 
E|-1-1-1-1-1-1-1-1---1-1-1-1-1-1-1-1---3-3-3-3-3-3-3-3---3-3-3-3-3-3-3-3-| 

Outro 

E|---------------------------------------------------------------------------| 
B|-------------------------------------1-1-1-1-1-1-1-1-1---1-1-1-1-1-1-1-1-1-| 
G|-5-5-5-5-5-5-5-5---5-5-5-5-5-5-5-5---2-2-2-2-2-2-2-2-2---2-2-2-2-2-2-2-2-2-| 
D|-5-5-5-5-5-5-5-5---5-5-5-5-5-5-5-5---2-2-2-2-2-2-2-2-2---2-2-2-2-2-2-2-2-2-| 
A|-3-3-3-3-3-3-3-3---3-3-3-3-3-3-3-3---0-0-0-0-0-0-0-0-0---0-0-0-0-0-0-0-0-0-| 
E|---------------------------------------------------------------------------| 

E|-----------------------------------------------------------------------| 
B|-----------------------------------------------------------------------| 
G|-----------------------------------------------------------------------| 
D|-3-3-3-3-3-3-3-3---3-3-3-3-3-3-3-3---5-5-5-5-5-5-5-5---5-5-5-5-5-5-5-5-| 
A|-3-3-3-3-3-3-3-3---3-3-3-3-3-3-3-3---5-5-5-5-5-5-5-5---5-5-5-5-5-5-5-5-| 
E|-1-1-1-1-1-1-1-1---1-1-1-1-1-1-1-1---3-3-3-3-3-3-3-3---3-3-3-3-3-3-3-3-| 

E|---------------------------------------------------------------------------| 
B|-------------------------------------1-1-1-1-1-1-1-1-1---1-1-1-1-1-1-1-1-1-| 
G|-5-5-5-5-5-5-5-5---5-5-5-5-5-5-5-5---2-2-2-2-2-2-2-2-2---2-2-2-2-2-2-2-2-2-| 
D|-5-5-5-5-5-5-5-5---5-5-5-5-5-5-5-5---2-2-2-2-2-2-2-2-2---2-2-2-2-2-2-2-2-2-| 
A|-3-3-3-3-3-3-3-3---3-3-3-3-3-3-3-3---0-0-0-0-0-0-0-0-0---0-0-0-0-0-0-0-0-0-| 
E|---------------------------------------------------------------------------| 

E|-----------------------------------------------------------------------| 
B|-----------------------------------------------------------------------| 
G|-----------------------------------------------------------------------| 
D|-3-3-3-3-3-3-3-3---3-3-3-3-3-3-3-3---5-5-5-5-5-5-5-5---5-5-5-5-5-5-5-5-| 
A|-3-3-3-3-3-3-3-3---3-3-3-3-3-3-3-3---5-5-5-5-5-5-5-5---5-5-5-5-5-5-5-5-| 
E|-1-1-1-1-1-1-1-1---1-1-1-1-1-1-1-1---3-3-3-3-3-3-3-3---3-3-3-3-3-3-3-3-| 

E|----------------| 
B|----------------| 
G|-------------5--| 
D|--3-x--5--x--5--| 
A|--3-x--5--x--3--| 
E|--1-x--3--x-----| 
		  

auto scroll beats size up size down change color hide chords drawings
tab show chords e-chords YouTube Clip e-chords hide all tabs e-chords go to top tab

share