Less Than Jake

She's Gonna Break Soon

Less Than Jake

bass

by  FALLING UP

save to print version add songbook text version e-mail correct tuner
chordsukulelecavacokeyboardtabbassdrumsharmonicaflute Guitar Pro
close

there isn't a video lesson for this song

chords

She's Gonna Break Soon

	  		Verse 
G:----------------------------------| 
D:-------------------------77665544-| 
A:-5-5555557-775-55--445577---------|x2 
E:-----------------55---------------| 
 
G:--------------------------------------------------| 
D:--------------------------------------------------| 
A:-5-5555557-777777-----9-------9-9555555557-7------|x1 
E:-----------------7---7---7-7-7-7------------------| 
 
Chorus 
G:--------------------------------------------------------------------| 
D:--------------------------------------------------------------------| 
A:-7~-7~---5~-5~-------------4-5-6-7~-7~---5~-5~----------------------|x1 
E:-----------------5~-5~--5~-----------------------5~-5~---0h55-0h55--| 
 
G:------------------------------------------------------------------| 
D:---------------------------------------------------------77665544-| 
A:-7~-7~---5~-5~----------4~-5-6-7-7~-7~---5~-5~-----445577---------|x1 
E:-----------------5~-5~---------------------------55---------------| 
 
Repeat: 
Verse 
 
Chorus 
G:--------------------------------------------------------------------| 
D:--------------------------------------------------------------------| 
A:-7~-7~---5~-5~-------------4-5-6-7~-7~---5~-5~----------------------|x1 
E:-----------------5~-5~--5~-----------------------5~-5~---0h55-0h55--| 
 
G:--------------------------------------------------| 
D:--------------------------------------------------| 
A:-7~-7~---5~-5~----------4~-5-6-7-7~-7~---5~-5~----|x1 
E:-----------------5~-5~----------------------------| 
 
G:------------------------------------------------------------------| 
D:------------------------------------------------------------------| 
A:---------------------------------------------------------7-777777-|x1 
E:-555555554-4444443-3333332-2222225-5555554-4444443-333333---------| 
 
Bridge 
G:------------------------------------------------------------------| 
D:-------------4422-------------------------------------------------| 
A:-222222222222----------------4422----------------7777777777777777-|x1 
E:-----------------222222222222----5555555555555555-----------------| 
 
G:------------------------------------------------------------------| 
D:-------------4422-------------------------------------------------| 
A:-222222222222----------------4422----------------5555555555555555-|x1 
E:-----------------222222222222----3333333333333333-----------------| 
 
G:------------------| 
D:------------------| 
A:-555555557-7------|x1 
E:------------------| 
 
Chorus 
G:--------------------------------------------------------------------| 
D:--------------------------------------------------------------------| 
A:-7~-7~---5~-5~-------------4-5-6-7~-7~---5~-5~----------------------|x1 
E:-----------------5~-5~--5~-----------------------5~-5~---0h55-0h55--| 
 
G:--------------------------------------------------| 
D:--------------------------------------------------| 
A:-7~-7~---5~-5~----------4~-5-6-7-7~-7~---5~-5~----|x1 
E:-----------------5~-5~----------------------------| 
 
G:------------------------------------------------------------------| 
D:----------------------------------------------------7-------5-----| 
A:---------------557777777755555555--------------557-7---775-5---55-|x1 
E:-55555555555577------------------55555555555577-------------------| 
 
G:----------------------------------|  |----------------------------------| 
D:----------------------------------|  |----------------------------------| 
A:----------------------------------|x2|---------7-777777--------5-555555-|x1 
E:-5-5555554-4444443-3333332-222222-|  |-5-555555--------3-333333---------| 
 
Outro 
G:------------------------------------------------------------------| 
D:-----------------5~~~---------------------------------------------| 
A:-------------------------5~~~-------------------------------------|x1 
E:-5~~~----0~~~--------------------5~~~-----------------------------| 

		  

auto scroll beats size up size down change color hide chords drawings
tab show chords e-chords YouTube Clip e-chords hide all tabs e-chords go to top tab

share