Leonard Cohen

Tonight Will Be Fine

Leonard Cohen

tabs

by  PAULANTUNES

save to print version add songbook text version e-mail correct tuner
chordsukulelecavacokeyboardtabbassdrumsharmonicaflute Guitar Pro
close

there isn't a video lesson for this song

chords

Tonight Will Be Fine

	  		
 Intro 
  Q=72 
  A 
 4/4 
  Gtr I (Ac. Nylon Str. Gtr. w/ Dropped D-Tuning - DADGBE) 
  |-3-| |-3-| |-3-| |-3-| |-3-| |-3-| |-3-| |-3-| 
  S S S S S S S S S S S S S S S S S S S S S S S S 
|-------------------------------------------------|| 
|-----2-----2-----2-----2-----2-----2-----2-----2-|| 
|---2-----2-----2-----2-----2-----2-----2-----2---|| 
|-------2-----------2-----------2-----------2-----|| 
|-0-----------------------0-----------------------|| 
|-------------2-----------------------2-----------|| 
  E     E     E     E     E     E     E     E 
1:11:1--|-------1:1-------|-1:1-| 


   1st - 3rd Verses 
    A 
   4/4 
    |-3-| |-3-| |-3-| |-3-| |-3-| |-3-| |-3-| |-3-| 
    S S S S S S S S S S S S S S S S S S S S S S S S 
||--------------------------------------------------| 
||o-----2-----2-----2-----2-----2-----2-----2-----2-| 
||----2-----2-----2-----2-----2-----2-----2-----2---| 
||--------2-----------2-----------2-----------2-----| 
||o-0-----------------------0-----------------------| 
||--------------2-----------------------2-----------| 
    E     E     E     E     E     E     E     E 
-1:1|-1:1-|-------1:1-------|-1:1-|------------------ 


  E                       A 
  |-3-| |-3-| |-3-| |-3-| |-3-| |-3-| |-3-| |-3-| 
  S S S S S S S S S S S S S S S S S S S S S S S S 
|---------------------------------------------------| 
|-----0-----0-----0-----0-----2-----2-----2-----2---| 
|---1-----1-----1-----1-----2-----2-----2-----2-----| 
|-------2-----------2-----------2-----------2-------| 
|-------------------------0-------------------------| 
|-2-----------2-----------------------2-------------| 
  E     E     E     E     E     E     E     E 
 --1:1--------------------|-1:1-| 


  |-3-| |-3-| |-3-| |-3-| |-3-| |-3-| |-3-| |-3-| 
  S S S S S S S S S S S S S S S S S S S S S S S S 
|-------------------------------------------------| 
|-----2-----2-----2-----2-----2-----2-----2-----2-| 
|---2-----2-----2-----2-----2-----2-----2-----2---| 
|-------2-----------2-----------2-----------2-----| 
|-0-----------------------0-----------------------| 
|-------------2-----------------------2-----------| 
  E     E     E     E     E     E     E     E 
1:11:1--|-------1:1-------|-1:1-|------------------ 


  E                       A 
  |-3-| |-3-| |-3-| |-3-| |-3-| |-3-| |-3-| |-3-| 
  S S S S S S S S S S S S S S S S S S S S S S S S 
|-------------------------------------------------| 
|-----0-----0-----0-----0-----2-----2-----2-----2-| 
|---1-----1-----1-----1-----2-----2-----2-----2---| 
|-------2-----------2-----------2-----------2-----| 
|-------------------------0-----------------------| 
|-2-----------2-----------------------2-----------| 
  E     E     E     E     E     E     E     E 
 --1:1--------------------|-1:1-| 


  |-3-| |-3-| |-3-| |-3-| |-3-| |-3-| |-3-| |-3-| 
  S S S S S S S S S S S S S S S S S S S S S S S S 
|-------------------------------------------------| 
|-----2-----2-----2-----2-----2-----2-----2-----2-| 
|---2-----2-----2-----2-----2-----2-----2-----2---| 
|-------2-----------2-----------2-----------2-----| 
|-0-----------------------0-----------------------| 
|-------------2-----------------------2-----------| 
  E     E     E     E     E     E     E     E 
1:11:1--|-------1:1-------|-1:1-|------------------ 


  E                       A 
  |-3-| |-3-| |-3-| |-3-| |-3-| |-3-| |-3-| |-3-| 
  S S S S S S S S S S S S S S S S S S S S S S S S 
|-------------------------------------------------| 
|-----0-----0-----0-----0-----2-----2-----2-----2-| 
|---1-----1-----1-----1-----2-----2-----2-----2---| 
|-------2-----------2-----------2-----------2-----| 
|-------------------------0-----------------------| 
|-2-----------2-----------------------2-----------| 
  E     E     E     E     E     E     E     E 
 --1:1--------------------|-1:1-| 


  |-3-| |-3-| |-3-| |-3-| |-3-| |-3-| |-3-| |-3-| 
  S S S S S S S S S S S S S S S S S S S S S S S S 
|-------------------------------------------------| 
|-----2-----2-----2-----2-----2-----2-----2-----2-| 
|---2-----2-----2-----2-----2-----2-----2-----2---| 
|-------2-----------2-----------2-----------2-----| 
|-0-----------------------0-----------------------| 
|-------------2-----------------------2-----------| 
  E     E     E     E     E     E     E     E 
1:11:1--|-------1:1-------|-1:1-|------------------ 


  E                       A 
  |-3-| |-3-| |-3-| |-3-| |-3-| |-3-| |-3-| |-3-| 
  S S S S S S S S S S S S S S S S S S S S S S S S 
|-------------------------------------------------|| 
|-----0-----0-----0-----0-----2-----2-----2-----2-|| 
|---1-----1-----1-----1-----2-----2-----2-----2---|| 
|-------2-----------2-----------2-----------2-----|| 
|-------------------------0-----------------------|| 
|-2-----------2-----------------------2-----------|| 
  E     E     E     E     E     E     E     E 
 --1:1--------------------|-1:1-| 


 Chorus 
  D                                 A 
  S S S S S S S S S S S S S S S S   S S S S S S S S S S S S S S S S 
|---2---2---2---2---2---2---2---2-|---0---0---0---0---0---0---0---0--| 
|---3---3---3---3---3---3---3---3-|---2---2---2---2---2---2---2---2--| 
|---------------------------------|----------------------------------| 
|-----0-------0-------0-------0---|-----2-------2-------2-------2----| 
|-0---------------0---------------|-0---------------0----------------| 
|---------0---------------0-------|---------2---------------2--------| 
  E   E   E   E   E   E   E   E     E   E   E   E   E   E   E   E 


  D                                 A 
  S S S S S S S S S S S S S S S S   S S S S S S S S S S S S S S S S 
|---2---2---2---2---2---2---2---2-|---0---0---0---0---0---0---0---0--| 
|---3---3---3---3---3---3---3---3-|---2---2---2---2---2---2---2---2--| 
|---------------------------------|----------------------------------| 
|-----0-------0-------0-------0---|-----2-------2-------2-------2----| 
|-0---------------0---------------|-0---------------0----------------| 
|---------0---------------0-------|---------2---------------2--------| 
  E   E   E   E   E   E   E   E     E   E   E   E   E   E   E   E 


  D 
                  |-3-| |-3-| |-3-| |-3-| 
  S S S S S S S S S S S S S S S S S S S S 
|---2---2---2---2-------------------------| 
|---3---3---3---3-----3-----3-----3-----3-| 
|-------------------2-----2-----2-----2---| 
|-----0-------0---------0-----------0-----| 
|-0---------------0-----------------------| 
|---------0-------------------0-----------| 
  E   E   E   E   E     E     E     E 


  A 
  |-3-| |-3-| |-3-| |-3-| |-3-| |-3-| |-3-| |-3-| 
  S S S S S S S S S S S S S S S S S S S S S S S S 
|--------------------------------------------------| 
|-----2-----2-----2-----2-----2-----2-----2-----2--| 
|---2-----2-----2-----2-----2-----2-----2-----2----| 
|-------2-----------2-----------2-----------2------| 
|-0-----------------------0------------------------| 
|-------------2-----------------------2------------| 
  E     E     E     E     E     E     E     E 


                            E 
 2/4                       4/4 
  |-3-| |-3-| |-3-| |-3-|   |-3-| |-3-| |-3-| |-3-| |-3-| |-3-| |-3-| |-3-| 
  S S S S S S S S S S S S   S S S S S S S S S S S S S S S S S S S S S S S S 
|-------------------------|--------------------------------------------------| 
|-----2-----2-----2-----2-|-----0-----0-----0-----0-----0-----0-----0-----0--| 
|---2-----2-----2-----2---|---1-----1-----1-----1-----1-----1-----1-----1----| 
|-------2-----------2-----|-------2-----------2-----------2-----------2------| 
|-0-----------------------|--------------------------------------------------| 
|-------------2-----------|-2-----------2-----------2-----------2------------| 
  E     E     E     E       E     E     E     E     E     E     E     E 


  1.,2. 
  E7 
  |-3-| |-3-| |-3-| |-3-| |-3-| |-3-| |-3-| |-3-| 
  S S S S S S S S S S S S S S S S S S S S S S S S 
|-------------------------------------------------| 
|-----0-----0-----0-----0-----0-----0-----0-----0-| 
|---1-----1-----1-----1-----1-----1-----1-----1---| 
|-------0-----------0-----------0-----------0-----| 
|-2-----------------------2-----------------------| 
|-------------2-----------------------2-----------| 


  A 
  |-3-| |-3-| |-3-| |-3-| |-3-| |-3-| |-3-| |-3-| 
  S S S S S S S S S S S S S S S S S S S S S S S S 
|-------------------------------------------------| 
|-----2-----2-----2-----2-----2-----2-----2-----2-| 
|---2-----2-----2-----2-----2-----2-----2-----2---| 
|-------2-----------2-----------2-----------2-----| 
|-0-----------------------0-----------------------| 
|-------------2-----------------------2-----------| 
  E     E     E     E     E     E     E     E 


  |-3-| |-3-| |-3-| |-3-| |-3-| |-3-| |-3-| |-3-| 
  S S S S S S S S S S S S S S S S S S S S S S S S  3x 
|--------------------------------------------------|| 
|-----2-----2-----2-----2-----2-----2-----2-----2-o|| 
|---2-----2-----2-----2-----2-----2-----2-----2----|| 
|-------2-----------2-----------2-----------2------|| 
|-0-----------------------0-----------------------o|| 
|-------------2-----------------------2------------|| 
  E     E     E     E     E     E     E     E 


 3. 
  E7 
  |-3-| |-3-| |-3-| |-3-| |-3-| |-3-| |-3-| |-3-| 
  S S S S S S S S S S S S S S S S S S S S S S S S 
|-------------------------------------------------| 
|-----0-----0-----0-----0-----0-----0-----0-----0-| 
|---1-----1-----1-----1-----1-----1-----1-----1---| 
|-------0-----------0-----------0-----------0-----| 
|-2-----------------------2-----------------------| 
|-------------2-----------------------2-----------| 


  A 
  |-3-| |-3-| |-3-| |-3-| |-3-| |-3-| |-3-| |-3-| 
  S S S S S S S S S S S S S S S S S S S S S S S S 
|-------------------------------------------------| 
|-----2-----2-----2-----2-----2-----2-----2-----2-| 
|---2-----2-----2-----2-----2-----2-----2-----2---| 
|-------2-----------2-----------2-----------2-----| 
|-0-----------------------0-----------------------| 
|-------------2-----------------------2-----------| 
  E     E     E     E     E     E     E     E 


  |-3-| |-3-| |-3-| |-3-| |-3-| |-3-| |-3-| |-3-| 
  S S S S S S S S S S S S S S S S S S S S S S S S 
|-------------------------------------------------*| 
|-----2-----2-----2-----2-----2-----2-----2-----2-*| 
|---2-----2-----2-----2-----2-----2-----2-----2---*| 
|-------2-----------2-----------2-----------2-----*| 
|-0-----------------------0-----------------------*| 
|-------------2-----------------------2-----------*| 
  E     E     E     E     E     E     E     E 


 
		  

Full key step upFull key step up
Half key step upHalf key step up
Half key step downHalf key step down
Full key step downFull key step down
auto scroll beats size up size down change color hide chords drawings
tab show chords e-chords YouTube Clip e-chords hide all tabs e-chords go to top tab

share