Leo Dan

home > Leo Dan

Pideme La Luna Tab

Leo Dan

Difficulty: BeginnerBeginner

by adalgomes

tuner correct add songbook print version text version save to e-mail
chordsukulelecavacokeyboardtabbassdrumsharmonicsflute Guitar Pro
chords

Pideme La Luna

  		hola a todos esta es la primera colaboración q hago 
a atame ojala les guste 

INTRO: 

e --9-7----7/9.------9-7----7----- 
B ------10---------------10---7.-- 
G 9---------------9--------------- 
D -------------------------------- 
A -------------------------------- 
E -------------------------------- 

e --7----7----7----7----7----7---- 
B ----10---10---10---10---10------ 
G 9------------------------------- 
D -------------------------------- 
A -------------------------------- 
E -------------------------------- 

e --7----7-----7/9-7-------------- 
B ----10---10--------10----------- 
G 9------------------------------- 
D -------------------------------- 
A -------------------------------- 
E -------------------------------- 


e --9-7----7/9.------9-7----7----- 
B ------10---------------10---7.-- 
G 9---------------9--------------- 
D -------------------------------- 
A -------------------------------- 
E -------------------------------- 

e --7----7----7----7----7----7---- 
B ----10---10---10---10---10------ 
G 9------------------------------- 
D -------------------------------- 
A -------------------------------- 
E -------------------------------- 

e --7----7-----7/9-7-------------- 
B ----10---10--------10----------- 
G 9------------------------------- 
D -------------------------------- 
A -------------------------------- 
E -------------------------------- 


e 9-9-9-9-9-9-------10-9-9-------- 
B ------------10-10--------------- 
G -------------------------------- 
D -------------------------------- 
A -------------------------------- 
E -------------------------------- 

e 9-9-9-9-9-9-------10-9-7-------- 
B ------------10-10--------------- 
G -------------------------------- 
D -------------------------------- 
A -------------------------------- 
E -------------------------------- 

e 7-7-7-7-7-7-----9-7-7----------- 
B ------------9-9----------------- 
G -------------------------------- 
D -------------------------------- 
A -------------------------------- 
E -------------------------------- 

e 7-7-7-7-7-7-----9-7-5----------- 
B ------------9-9----------------- 
G -------------------------------- 
D -------------------------------- 
A -------------------------------- 
E -------------------------------- 

e 9-9-9-9-9-9-------10-9-9-------- 
B ------------10-10--------------- 
G -------------------------------- 
D -------------------------------- 
A -------------------------------- 
E -------------------------------- 

e 9-9-9-9-9-9-------10-9-7-------- 
B ------------10-10--------------- 
G -------------------------------- 
D -------------------------------- 
A -------------------------------- 
E -------------------------------- 

e 7-7-7-7-7-7-----9-7-7----------- 
B ------------9-9----------------- 
G -------------------------------- 
D -------------------------------- 
A -------------------------------- 
E -------------------------------- 

e 7-7-7-7-7-7-----9-7-5----------- 
B ------------9-9----------------- 
G -------------------------------- 
D -------------------------------- 
A -------------------------------- 
E -------------------------------- 

e -------------------------------- 
B -9-10-9-10-9-------------------- 
G -------------11-11-9--9-9------- 
D -------------------------------- 
A -------------------------------- 
E -------------------------------- 


e -------------------------------- 
B ------9-10-12-9-10----9-10-12--- 
G -9-11--------------------------- 
D -------------------------------- 
A -------------------------------- 
E -------------------------------- 

e -------9-10-12-14-12-9-12------- 
B -10-12-------------------------- 
G -------------------------------- 
D -------------------------------- 
A -------------------------------- 
E -------------------------------- 

e ----10-9------------------------ 
B -12------10--------------------- 
G -------------------------------- 
D -------------------------------- 
A -------------------------------- 
E -------------------------------- 

e -------------------------------- 
B -9-10-9-10-9-------------------- 
G -------------11-11-9--9-9------- 
D -------------------------------- 
A -------------------------------- 
E -------------------------------- 


e -------------------------------- 
B ------9-10-12-9-10----9-10-12--- 
G -9-11--------------------------- 
D -------------------------------- 
A -------------------------------- 
E -------------------------------- 

e -------9-10-12-14-12-9-12------- 
B -10-12-------------------------- 
G -------------------------------- 
D -------------------------------- 
A -------------------------------- 
E -------------------------------- 

e ----10-9------------------------ 
B -12------10--------------------- 
G -------------------------------- 
D -------------------------------- 
A -------------------------------- 
E -------------------------------- 

Después del punteo sigue la canción y los acordes 
de la transposición anterior están correctos. 

               A 
Las horas mas lindas 
            Bm 
las paso contigo si 
    E 
no quiero ni pensar si un dia me faltas tu 
                      A 
no quiero ni pensarlo amor 

               A 
Tu me acostumbraste 
              Bm 
a ser como un niño 
  E 
no quiero ni pensar si un dia me faltas tu 
                       A 
no quiero ni pensarlo amor 

Coro: 
                        A 
pideme la luna te la bajare 
                                 Bm 
pideme una estrella hasta alla me ire 

mas nunca me digas no te quiero mas 
                                     A 
porque esas apalabras me hacen mucho mal 

pideme la vida y te demostrare 
                                Bm 
cuanto yo te quise y cuanto te amare 

tu fuiste y has sido para mi el amor 
                                 A 
regalo mas lindo que me ha dado Dios 


e -------------------------------- 
B -9-10-9-10-9-------------------- 
G -------------11-11-9--9-9------- 
D -------------------------------- 
A -------------------------------- 
E -------------------------------- 


e -------------------------------- 
B ------9-10-12-9-10----9-10-12--- 
G -9-11--------------------------- 
D -------------------------------- 
A -------------------------------- 
E -------------------------------- 

e -------9-10-12-14-12-9-12------- 
B -10-12-------------------------- 
G -------------------------------- 
D -------------------------------- 
A -------------------------------- 
E -------------------------------- 

e ----10-9------------------------ 
B -12------10--------------------- 
G -------------------------------- 
D -------------------------------- 
A -------------------------------- 
E -------------------------------- 

e -------------------------------- 
B -9-10-9-10-9-------------------- 
G -------------11-11-9--9-9------- 
D -------------------------------- 
A -------------------------------- 
E -------------------------------- 


e -------------------------------- 
B ------9-10-12-9-10----9-10-12--- 
G -9-11--------------------------- 
D -------------------------------- 
A -------------------------------- 
E -------------------------------- 

e -------9-10-12-14-12-9-12------- 
B -10-12-------------------------- 
G -------------------------------- 
D -------------------------------- 
A -------------------------------- 
E -------------------------------- 

e ----10-9------------------------ 
B -12------10--------------------- 
G -------------------------------- 
D -------------------------------- 
A -------------------------------- 
E -------------------------------- 


               A             Bm 
Quisiera esta noche tenerte conmigo amor 
     E 
no quiero ni pensar si un dia me faltas tú 
                       A 
no quiero ni pensarlo amor 

               A 
Tu me acostumbraste 
              Bm 
a ser como unh niño 
   E 
no quiero ni pensar si un dia me faltas tu 
                       A 
no quiero ni pensarlo amor 

                        A 
pideme la luna te la bajare 
                                 Bm 
pideme una estrella hasta alla me ire 

mas nunca me digas no te quiero mas 
                                     A 
porque esas apalabras me hacen mucho mal 

pideme la vida y te demostrare 
                                Bm 
cuanto yo te quise y cuanto te amare 

tu fuiste y has sido para mi el amor 
                                 A 
regalo mas lindo que me ha dado Dios... 

ahi esta la canción. 
esta canción se la dedico a geraldine de la q estoy 
recontra enamorado de ella, la quiero un montón como 
nunca ame a nadie antes.(L).....tkm....
	  

Full key step upFull key step up
Half key step upHalf key step up
Half key step downHalf key step down
Full key step downFull key step down
Search Paypal
auto scroll beats size up size down change color hide chords drawings
tab show chords e-chords YouTube Clip e-chords hide all tabs e-chords go to top tab