Led Zeppelin

home > Led Zeppelin

Pat S Delight Tab

Led Zeppelin

Difficulty: nolevelnolevel

tuner correct add songbook print version text version save to e-mail
chordsukulelecavacokeyboardtabbassdrumsharmonicsflute Guitar Pro
chords

Pat S Delight

  		This is an unrealesed number livr from Fillmore West in 1969.  I heard it on a b 
ootleg, and since nobody's tabbed it, I figured I would be the first.  Basically 
, it is a kind of Moby Dick dealy, a short drum intro, cool guitar, and long dru 
m solo.  Enough jibber-jabb'rin, here it is. 
 
-|-|---------------|---------------|---------------|-------------------------| 
-|-|---------------|---------------|---------------|-------------------------| 
-|-|---5v----------|---5v----------|---5v----------|---5h7-5h7-5h7-5h7-7p5---| 
-|-|-7----7-5-7v---|-7----7-5-7v---|-7----7-5-7v---|-7----7---7---7---7------| 
-|-|---------------|---------------|---------------|-------------------------| 
-|-|---------------|---------------|---------------|-------------------------| 
   (--This is the main riff. Play it as shown.---)(Then this, and start over) 
 
-|-|---------------|---------------|---------------|-------------------------| 
-|-|---------------|---------------|---------------|-------------------------| 
-|-|---5v----------|---5v----------|---5v----------|---7p5---7p5---7p5---7p5-| 
-|-|-7----7-5-7----|-7----7-5-7----|-7----7-5-7----|-7-----7-----7-----7-----| 
-|-|---------------|---------------|---------------|-------------------------| 
-|-|---------------|---------------|---------------|-------------------------| 
                                                  (A bit different this time) 
 
-|-|---------------|---------------|---------3-2-0-|-3-2-0-------------------| 
-|-|---------------|---------------|---------------|-------------------------| 
-|-|---------------|---------------|---------------|-------------------------| 
-|-|-7-7-7-7-5-----|-7-7-7-7-10b12v|-7-7-7-7-5-4-2-|-5-4-2-------------------| 
-|-|-7-7-7-7-5-----|-7-7-7-7-10----|-5-5-5-5-5-4-2-|-5-4-2-------------------| 
-|-|-5-5-5-5-3-----|-5-5-5-5--8----|-5-5-5-5-3-2-0-|-3-2-0-------------------| 
   (After you play this part above, enter main riff.)(Remember, play it 3x) 
 
-|-|---------------|---------------|---------------|-------------------------| 
-|-|---------------|---------------|---------------|-------------------------| 
-|-|---5v----------|---5v----------|---5v----------|---7p5-7p5-7p5-7p5-7p5---| 
-|-|-7----7-5-7----|-7----7-5-7----|-7----7-5-7----|-7----7---7---7---7------| 
-|-|---------------|---------------|---------------|-------------------------| 
-|-|---------------|---------------|---------------|-------------------------| 
 
 
-|-|---------------|---------------|---------------|-------------------------| 
-|-|---------------|---------------|---------------|-------------------------| 
-|-|---5v----------|---5v----------|---5v----------|-7/5-5-7/5-5-7/5-5-7/5-5-| 
-|-|-7----7-5-7----|-7----7-5-7----|-7----7-5-7----|-7/5---7/5---7/5---7/5-5-| 
-|-|---------------|---------------|---------------|-------------------------| 
-|-|---------------|---------------|---------------|-------------------------| 
 
 
-|-|-5-5-5-5-3-----|-5-5-5-5-6/8---|---------------|-------------------------| 
-|-|-5-5-5-5-3-----|-5-5-5-5-6/8---|---------------|-------------------------| 
-|-|-9-9-9-9-7-----|-9-9-9-9-------|---------------|-------------------------| 
-|-|---------------|---------------|-7-7-7-5-4-2---|-5-4-2--5-4-2--5brbrbr---| 
-|-|---------------|---------------|-7-7-7-5-4-2---|-5-4-2--5-4-2------------| 
-|-|---------------|---------------|---------------|-------------------------| 
	  

Full key step upFull key step up
Half key step upHalf key step up
Half key step downHalf key step down
Full key step downFull key step down
Search Paypal
auto scroll beats size up size down change color hide chords drawings
tab show chords e-chords YouTube Clip e-chords hide all tabs e-chords go to top tab