Led Zeppelin

home > Led Zeppelin

Kashmir (introd) Tab

Led Zeppelin

Difficulty: ExpertExpert

by New%5Fvinny

tuner correct add songbook print version text version save to e-mail
chordsukulelecavacokeyboardtabbassdrumsharmonicsflute Guitar Pro
chords

Kashmir (introd)

  		|------------------------------------------------------------------------------------------------- 
|------------------------------------------------------------------------------------------------- 
|--2---2---2----2---2---2-------3---3---3------3---3---3------4---4---4-----4---4---4 
|--0---0---0----0---0---0-------0---0---0------0---0---0------0---0---0------0---0---0 
|-------------------------------------------------------------------------------------------------- 
|------------------------------0----------------------------------0-------------------------------0 
 
|---------------------------------------------------------------------------------------- 
|----------------------------------------------------------------------------------------- 
|--5---5---5------5---5---5------7---7---7----------------------------------------- 
|--0---0---0------0---0---0------0---0---0------------------------------------------ 
|------------------------------------------------------------------------------------------ 
|---------------------------------0------------------------------------------------------- 
 
Essa intro é verso tb é so' repetir 
	  

Search Paypal
auto scroll beats size up size down change color hide chords drawings
tab show chords e-chords YouTube Clip e-chords hide all tabs e-chords go to top tab