Lady Gaga

home > Lady Gaga

Telephone Tab

Lady Gaga

Difficulty: BeginnerBeginner

by glauciaregi

tuner correct add songbook print version text version save to e-mail
chordsukulelecavacokeyboardtabbassdrumsharmonicsflute Guitar Pro
chords

Telephone

  		versão 1: 

e|-8-6-4---1~---4--13-11-10--------------| 
b|-------4---4-------------11----8-9-----| 
g|----------------------------10---------| 
d|---------------------------------------| 
a|---------------------------------------| 
e|---------------------------------------| 


versão 2: 
capo no 1º traste 

e|-7-5-3-0-------12-10-9-5-0-2-3-| 
B|---------3-5-8-----------------| 
G|-------------------------------| 
D|-------------------------------| 
A|-------------------------------| 
E|-------------------------------| 


versão 3: 

e|-8-6-4-1-------13-11-10-6-1-3-4-| 
B|---------4-6-9------------------| 
G|--------------------------------| 
D|--------------------------------| 
A|--------------------------------| 
E|--------------------------------| 
	  

Search Paypal
auto scroll beats size up size down change color hide chords drawings
tab show chords e-chords YouTube Clip e-chords hide all tabs e-chords go to top tab