Lacuna Coil

home > Lacuna Coil

Kill The Light Tab

Lacuna Coil

Difficulty: nolevelnolevel

by hebealmeida

tuner correct add songbook print version text version save to e-mail
chordsukulelecavacokeyboardtabbassdrumsharmonicsflute Guitar Pro
chords

Kill The Light

  		


Fill: x2 
|--7--5-----7-5---| 
|--------5------5-| 
|-----------------| 
|-----------------| 
|-----------------| 
|-----------------| 

Intro (Guitar1): 
|--7-7-7-5-5-5-8-8-8-7-7-7-5-5-5-5-----| 
|--5-5-5-5-5-5-5-5-5-5-5-5-5-5-5-5-----| 
|--------------------------------------| 
|--------------------------------------| 
|--------------------------------------| 
|--------------------------------------| 

(Guitar2): 
|--------------------------------------------------------------------| 
|--------------------------------------------------------------------| 
|--------------------------------------------------------------------| 
|--2-2-2-2-2-2-2-2-2-2-2-2-2-2-2-2--7-7-7-7-7-7-7-7-5-5-5-5-5-5-5-5--| 
|--2-2-2-2-2-2-2-2-2-2-2-2-2-2-2-2--7-7-7-7-7-7-7-7-5-5-5-5-5-5-5-5--| 
|--2-2-2-2-2-2-2-2-2-2-2-2-2-2-2-2--7-7-7-7-7-7-7-7-5-5-5-5-5-5-5-5--| 

|-------------------------------------------------------------------------|--------| 
|-------------------------------------------------------------------------|--------| 
|-------------------------------------------------------------------------|--------| 
|--2-2-2-2-2-2-2-2-2-2-2-2-2-2-2-2---7-7-7-7-7-7-7-7-7\10-10-10-10-9-9-9--|----2---| 
|--2-2-2-2-2-2-2-2-2-2-2-2-2-2-2-2---7-7-7-7-7-7-7-7-7\10-10-10-10-9-9-9--|----2---| 
|--2-2-2-2-2-2-2-2-2-2-2-2-2-2-2-2---7-7-7-7-7-7-7-7-7\10-10-10-10-9-9-9--|----2---| 


Verse Fill (Guitar1) (Clean): 
|----7---7---8---7---8---7---8---7---8---7-| 
|--5---5---5---5---5---5---5---5---5---5---| 
|------------------------------------------| 
|------------------------------------------| 
|------------------------------------------| 
|------------------------------------------| 

|----7---5---7---5---7---5---7---5---7---5---7-| 
|--5---5---5---5---5---5---5---5---5---5---5---| 
|----------------------------------------------| 
|----------------------------------------------| 
|----------------------------------------------| 
|----------------------------------------------| 

Verse: (Guitar 2) 
|----------------------------|--------------------| 
|----------------------------|--------------------| 
|----------------------------|--------------------| 
|----------------------------|--------------------| 
|---------------0------3-----|--2--------3----5---| 
|--2------4--5---------------|--------------------| 

Chorus: x2 
(Guitar1) 
|--7-7-7-5-5-5-8-8-8-7-7-7-5-5-5-5-----| 
|--5-5-5-5-5-5-5-5-5-5-5-5-5-5-5-5-----| 
|--------------------------------------| 
|--------------------------------------| 
|--------------------------------------| 
|--------------------------------------| 


(Guitar2) 
|--------------------------------------------------------------------| 
|--------------------------------------------------------------------| 
|--------------------------------------------------------------------| 
|--2-2-2-2-2-2-2-2-2-2-2-2-2-2-2-2--7-7-7-7-7-7-7-7-5-5-5-5-5-5-5-5--| 
|--2-2-2-2-2-2-2-2-2-2-2-2-2-2-2-2--7-7-7-7-7-7-7-7-5-5-5-5-5-5-5-5--| 
|--2-2-2-2-2-2-2-2-2-2-2-2-2-2-2-2--7-7-7-7-7-7-7-7-5-5-5-5-5-5-5-5--| 



|-------------------------------------------------------------------------|-second-| 
|-------------------------------------------------------------------------|-time---| 
|-------------------------------------------------------------------------|--------| 
|--2-2-2-2-2-2-2-2-2-2-2-2-2-2-2-2---7-7-7-7-7-7-7-7-7\10-10-10-10-9-9-9--|----2---| 
|--2-2-2-2-2-2-2-2-2-2-2-2-2-2-2-2---7-7-7-7-7-7-7-7-7\10-10-10-10-9-9-9--|----2---| 
|--2-2-2-2-2-2-2-2-2-2-2-2-2-2-2-2---7-7-7-7-7-7-7-7-7\10-10-10-10-9-9-9--|----2---| 

Verse 
Chorus 

Breakdown: 
|---------------------------------------| 
|---------------------------------------| 
|---------------------------------------| 
|--2--2-2--2-2-2-2---7--7-7--7-7-5--5-5-| 
|--2--2-2--2-2-2-2---7--7-7--7-7-5--5-5-| 
|--2--2-2--2-2-2-2---7--7-7--7-7-5--5-5-| 

|-------------------------------------------------|----------------| 
|-------------------------------------------------|----------------| 
|-------------------------------------------------|----------------| 
|--2--2-2--2-2-2-2---7--7-7--7\10-10-10--9-9------|--9-9-9-9-9-9---| 
|--2--2-2--2-2-2-2---7--7-7--7\10-10-10--9-9------|--9-9-9-9-9-9---| 
|--2--2-2--2-2-2-2---7--7-7--7\10-10-10--9-9------|--9-9-9-9-9-9---| 

Interlude: 
|--------------------------------------------------------------------| 
|--------------------------------------------------------------------| 
|--7-7-7-7-7-7-7-7-6-6-6-6-6-6-6-6-5-5-5-5-5-5-5-5-4-4-4-4-4-4-4-4---| 
|--7-7-7-7-7-7-7-7-6-6-6-6-6-6-6-6-5-5-5-5-5-5-5-5-4-4-4-4-4-4-4-4---| 
|--5-5-5-5-5-5-5-5-4-4-4-4-4-4-4-4-3-3-3-3-3-3-3-3-2-2-2-2-2-2-2-2---| 
|--------------------------------------------------------------------| 

|--------------------------------------------------------------------| 
|--------------------------------------------------------------------| 
|--7-7-7-7-7-7-7-7-6-6-6-6-6-6-6-6-5-5-5-5-5-5-5-5-4-4-4---4-4-4-4---| 
|--7-7-7-7-7-7-7-7-6-6-6-6-6-6-6-6-5-5-5-5-5-5-5-5-4-4-4---4-4-4-4---| 
|--5-5-5-5-5-5-5-5-4-4-4-4-4-4-4-4-3-3-3-3-3-3-3-3-2-2-2---2-2-2-2---| 
|--------------------------------------------------------------------| 

Outro: 
|---------------------------------------| 
|---------------------------------------| 
|---------------------------------------| 
|--2--2-2--2-2-2-2---7--7-7--7-7-5--5-5-| 
|--2--2-2--2-2-2-2---7--7-7--7-7-5--5-5-| 
|--2--2-2--2-2-2-2---7--7-7--7-7-5--5-5-| 

|-------------------------------------------------|---------------------| 
|-------------------------------------------------|---------------------| 
|-------------------------------------------------|---------------------| 
|--2--2-2--2-2-2-2---7--7-7--7\10-10-10--9-9------|--9-9-9-9-9-9-----2--| 
|--2--2-2--2-2-2-2---7--7-7--7\10-10-10--9-9------|--9-9-9-9-9-9-----2--| 
|--2--2-2--2-2-2-2---7--7-7--7\10-10-10--9-9------|--9-9-9-9-9-9-----2--| 
	  

Search Paypal
auto scroll beats size up size down change color hide chords drawings
tab show chords e-chords YouTube Clip e-chords hide all tabs e-chords go to top tab