Lacuna Coil

home > Lacuna Coil

Layers Of Time Tab

Lacuna Coil

Difficulty: nolevelnolevel

by sabrjoao

tuner correct add songbook print version text version save to e-mail
chordsukulelecavacokeyboardtabbassdrumsharmonicsflute Guitar Pro
chords

Layers Of Time

  		
Guitar 1 (A E A D G B e) - 'Distortion, Rhythm' 
Guitar 2 (A E A D G B e) - 'Distortion, Lead' 

Intro 
4/4 
- Guitar 1 and 2 are separated here due to the different rhythms, but are played at the same time. 

  Gtr 1 
    T T S  T T S+E   T T S  T T S+E   T T S  T T S     +E   T T S  T T S+E   T T S  T T S  T T T T T T T T 
e||---------------------------------------------------|------------------------------------------------------| 
B||o--------------------------------------------------|------------------------------------------------------| 
G||---------------------------------------------------|------------------------------------------------------| 
D||---------------------------------------------------|------------------------------------------------------| 
A||---------------------------------------------------|------------------------------------------------------| 
E||o--------------------------------------------------|------------------------------------------------------| 
A||--5-5-5--5-5-5-----5-5-5--5-5-5-----5-5-5--5-5-5---|------5-5-5--5-5-5-----5-5-5--5-5-5--5-5-5-5-5-5-5-5--| 

    T T S  T T S+E   T T S  T T S+E   T T S  T T S     +E   T T S  T T S+E   T T S  T T S  T T T T T T T T(x2) 
e|---------------------------------------------------|------------------------------------------------------| 
B|---------------------------------------------------|-----------------------------------------------------o| 
G|---------------------------------------------------|------------------------------------------------------| 
D|---------------------------------------------------|------------------------------------------------------| 
A|---------------------------------------------------|------------------------------------------------------| 
E|---------------------------------------------------|-----------------------------------------------------o| 
A|--5-5-5--5-5-5-----5-5-5--5-5-5-----5-5-5--5-5-5---|------5-5-5--5-5-5-----5-5-5--5-5-5--5-5-5-5-5-5-5-5--| 
                                                                                          Slowly bend these 

  Gtr 2                                                                                      
    S  S S  S S  S S  S S  S S  S S  S S  S      S  S S  S S  S S  S S  S S  S S  S S  S     
e||--------------------------------------------|--------------------------------------------| 
B||--------------------------------------------|--------------------------------------------| 
G||--------------------------------------------|--------------------------------------------| 
D||--14-0-15-0-12-0-14-0-15-0-12-0-14-0-15-0---|--12-0-14-0-15-0-12-0-14-0-15-0-12-0-14-0---| 
A||--------------------------------------------|--------------------------------------------| 
E||--------------------------------------------|--------------------------------------------| 
A||--------------------------------------------|--------------------------------------------| 
  
    S  S S  S S  S S  S S  S S  S S  S S  S      S  S S  S S  S S  S S  S S  S S  S S  S 
e|--------------------------------------------|--------------------------------------------| 
B|--------------------------------------------|--------------------------------------------| 
G|--------------------------------------------|--------------------------------------------| 
D|--17-0-19-0-17-0-19-0-20-0-17-0-19-0-20-0---|--17-0-19-0-20-0-17-0-19-0-20-0-17-0-19-0---| 
A|--------------------------------------------|--------------------------------------------| 
E|--------------------------------------------|--------------------------------------------| 
A|--------------------------------------------|--------------------------------------------| 

    S  S S  S S  S S  S S  S S  S S  S S  S      S  S S  S S  S S  S S  S S  S S  S S  S    
e|--------------------------------------------|--------------------------------------------| 
B|--------------------------------------------|--------------------------------------------| 
G|--------------------------------------------|--------------------------------------------| 
D|--14-0-15-0-12-0-14-0-15-0-12-0-14-0-15-0---|--12-0-14-0-15-0-12-0-14-0-15-0-12-0-14-0---| 
A|--------------------------------------------|--------------------------------------------| 
E|--------------------------------------------|--------------------------------------------| 
A|--------------------------------------------|--------------------------------------------| 

    S  S S  S S  S S  S S  S S  S S  S S  S      S  S S  S S  S S  S S  S S  S S  S S  S 
e|--------------------------------------------|--------------------------------------------| 
B|--------------------------------------------|--------------------------------------------| 
G|--------------------------------------------|--------------------------------------------| 
D|--17-0-19-0-17-0-19-0-20-0-17-0-19-0-20-0---|--17-0-19-0-20-0-17-0-19-0-20-0-22-0-23-0---| 
A|--------------------------------------------|--------------------------------------------| 
E|--------------------------------------------|--------------------------------------------| 
A|--------------------------------------------|--------------------------------------------| 


verse 1 
  Gtr 1 
    S S S S+S S S S S S+S S S S S S     +S S S S S S+S S S S S S S  S  S  S 
e|------------------------------------|----------------------------------------| 
B|------------------------------------|----------------------------------------| 
G|------------------------------------|----------------------------------------| 
D|------------------------------------|----------------------------------------| 
A|------------------------------------|----------------------------------------| 
E|------------------------------------|----------------------------------------| 
A|--5-5-5-5---5-6-6-6-6---6-6-6-6-7---|----7-7-7-7-7---7-7/8-8-8-8--8--8--8----| 
 |                                    |                                        | 
 |Gtr 2                               |                                        | 
 |  S S S S S S S S S S S S S S S S   |  S S S S S S S S S S S S S  S  S  S    | 
e|------------------------------------|----------------------------------------| 
B|--3-3-3-3-3-3-3-3-3-3-3-3-3-3-3-3---|--3-3-3-3-3-3-3-3-3-3-3-3-10-10-10-10---| 
G|------------------------------------|----------------------------------------| 
D|------------------------------------|----------------------------------------| 
A|------------------------------------|----------------------------------------| 
E|------------------------------------|----------------------------------------| 
A|------------------------------------|----------------------------------------| 

    S S S S+S S S S S S+S S S S S S     +S S S S S S+S S S S S S S S S S 
e|------------------------------------|------------------------------------| 
B|------------------------------------|------------------------------------| 
G|------------------------------------|------------------------------------| 
D|------------------------------------|------------------------------------| 
A|------------------------------------|------------------------------------| 
E|--5-5-5-5---5-6-6-6-6---6-6-6-6-7---|----7-7-7-7-7---7-7/8-8-8-8-8-8-8---| 
A|--5-5-5-5---5-6-6-6-6---6-6-6-6-7---|----7-7-7-7-7---7-7/8-8-8-8-8-8-8---| 
 |                                    |                                    | 
 |  S S S S S S S S S S S S S S S S   |  S S S S S S S S S S S S S S S S   | 
e|------------------------------------|--------------------------0-0-------| 
B|--3-3-3-3-3-3-3-3-3-3-3-3-3-3-3-3---|--3-3-3-3-3-3-3-3-3-3-3-3-6-6-6-6---| 
G|------------------------------------|------------------------------------| 
D|------------------------------------|------------------------------------| 
A|------------------------------------|------------------------------------| 
E|------------------------------------|------------------------------------| 
A|------------------------------------|------------------------------------| 

    S S S S+S S S S S S+S S S S S S     +S S S S S S+S S S S S S S  S  S  S 
e|------------------------------------|----------------------------------------| 
B|------------------------------------|----------------------------------------| 
G|------------------------------------|----------------------------------------| 
D|------------------------------------|----------------------------------------| 
A|------------------------------------|----------------------------------------| 
E|--5-5-5-5---5-6-6-6-6---6-6-6-6-7---|----7-7-7-7-7---7-7/8-8-8-8--8--8--8----| 
A|--5-5-5-5---5-6-6-6-6---6-6-6-6-7---|----7-7-7-7-7---7-7/8-8-8-8--8--8--8----| 
 |                                    |                                        | 
 |  S S S S S S S S S S S S S S S S   |  S S S S S S S S S S S S S  S  S  S    | 
e|------------------------------------|----------------------------------------| 
B|--3-3-3-3-3-3-3-3-3-3-3-3-3-3-3-3---|--3-3-3-3-3-3-3-3-3-3-3-3-10-10-10-10---| 
G|------------------------------------|----------------------------------------| 
D|------------------------------------|----------------------------------------| 
A|------------------------------------|----------------------------------------| 
E|------------------------------------|----------------------------------------| 
A|------------------------------------|----------------------------------------| 

    S S S S+S S S S S S+S S S S S S     +S S S S S S+S S S S S S S S S S 
e|------------------------------------|------------------------------------| 
B|------------------------------------|------------------------------------| 
G|------------------------------------|------------------------------------| 
D|------------------------------------|------------------------------------| 
A|------------------------------------|------------------------------------| 
E|--5-5-5-5---5-6-6-6-6---6-6-6-6-7---|----7-7-7-7-7---7-7/8-8-8-8-8-8-8---| 
A|--5-5-5-5---5-6-6-6-6---6-6-6-6-7---|----7-7-7-7-7---7-7/8-8-8-8-8-8-8---| 
 |                                    |                                    | 
 |  S S S S S S S S S S S S S S S S   |  S S S S S S S S S S S S S S S S   | 
e|------------------------------------|--------------------------0-0-------| 
B|--3-3-3-3-3-3-3-3-3-3-3-3-3-3-3-3---|--3-3-3-3-3-3-3-3-3-3-3-3-6-6-6-6---| 
G|------------------------------------|------------------------------------| 
D|------------------------------------|------------------------------------| 
A|------------------------------------|------------------------------------| 
E|------------------------------------|------------------------------------| 
A|------------------------------------|------------------------------------| 


Pre-Chorus 1 
  Gtr 1 
    S S S S+S S E   S S+S S S S S S (x3) S S S S+S S E   S S+S S S S(E) 
e|------------------------------------|------------------------------------| 
B|o----------------------------------o|------------------------------------| 
G|------------------------------------|------------------------------------| 
D|------------------------------------|------------------------------------| 
A|------------------------------------|------------------------------------| 
E|o-5h6---------------------4h5------o|--5h6---------------------5-5-------| 
A|------0-1---0-4---0-1---0-----0-0---|------0-1---0-4---0-1---0-----------| 
PM                        .     . .   |                        .           | 


Chorus 1 
  Gtr 1 
    S S S S+E   S S S S+E   S S S S      S S S S+E   S S S S+E   S S S S 
e|------------------------------------|------------------------------------| 
B|------------------------------------|------------------------------------| 
G|------------------------------------|------------------------------------| 
D|------------------------------------|------------------------------------| 
A|------------------------------------|------------------------------------| 
E|--1-1-1-1-----1-1-1-1-----1-1-1-1---|--5-5-5-5-----5-5-5-5-----5-5-5-5---| 
A|--1-1-1-1-----1-1-1-1-----1-1-1-1---|--5-5-5-5-----5-5-5-5-----5-5-5-5---| 

    S S S S+E   S S S S+E   S S S S      S S S S+E   S S S S+E   S S S S 
e|------------------------------------|------------------------------------| 
B|------------------------------------|------------------------------------| 
G|------------------------------------|------------------------------------| 
D|------------------------------------|------------------------------------| 
A|--7-7-7-7-----7-7-7-7-----7-7-7-7---|--3-3-3-3-----3-3-3-3-----3-3-3-3---| 
E|--5-5-5-5-----5-5-5-5-----5-5-5-5---|--1-1-1-1-----1-1-1-1-----1-1-1-1---| 
A|------------------------------------|------------------------------------| 

    S S S S+E   S S S S+E   S S S S      S S S S+E   S S S S+E   S S S S 
e|------------------------------------|------------------------------------| 
B|------------------------------------|------------------------------------| 
G|------------------------------------|------------------------------------| 
D|------------------------------------|------------------------------------| 
A|------------------------------------|------------------------------------| 
E|--1-1-1-1-----1-1-1-1-----1-1-1-1---|--5-5-5-5-----5-5-5-5-----5-5-5-5---| 
A|--1-1-1-1-----1-1-1-1-----1-1-1-1---|--5-5-5-5-----5-5-5-5-----5-5-5-5---| 

    S S S S+E   S S S S+E   S S S S      S S S S+E   S S S S+E   S S S S 
e|------------------------------------|------------------------------------| 
B|------------------------------------|------------------------------------| 
G|------------------------------------|------------------------------------| 
D|------------------------------------|------------------------------------| 
A|--7-7-7-7-----7-7-7-7-----7-7-7-7---|------------------------------------| 
E|--5-5-5-5-----5-5-5-5-----5-5-5-5---|--1-1-1-1-----1-1-1-1-----1-1-1-1---| 
A|------------------------------------|--1-1-1-1-----1-1-1-1-----1-1-1-1---| 


verse 2 
  Gtr 1 
    S S S S+S S S S S S+S S S S S S     +S S S S S S+S S S S S S S  S  S  S 
e|------------------------------------|----------------------------------------| 
B|------------------------------------|----------------------------------------| 
G|------------------------------------|----------------------------------------| 
D|------------------------------------|----------------------------------------| 
A|------------------------------------|----------------------------------------| 
E|------------------------------------|----------------------------------------| 
A|--5-5-5-5---5-6-6-6-6---6-6-6-6-7---|----7-7-7-7-7---7-7/8-8-8-8--8--8--8----| 
 |                                    |                                        | 
 |Gtr 2                               |                                        | 
 |  S S S S S S S S S S S S S S S S   |  S S S S S S S S S S S S S  S  S  S    | 
e|------------------------------------|----------------------------------------| 
B|--3-3-3-3-3-3-3-3-3-3-3-3-3-3-3-3---|--3-3-3-3-3-3-3-3-3-3-3-3-10-10-10-10---| 
G|------------------------------------|----------------------------------------| 
D|------------------------------------|----------------------------------------| 
A|------------------------------------|----------------------------------------| 
E|------------------------------------|----------------------------------------| 
A|------------------------------------|----------------------------------------| 

    S S S S+S S S S S S+S S S S S S     +S S S S S S+S S S S S S S S S S 
e|------------------------------------|------------------------------------| 
B|------------------------------------|------------------------------------| 
G|------------------------------------|------------------------------------| 
D|------------------------------------|------------------------------------| 
A|------------------------------------|------------------------------------| 
E|------------------------------------|------------------------------------| 
A|--5-5-5-5---5-6-6-6-6---6-6-6-6-7---|----7-7-7-7-7---7-7/8-8-8-8-8-8-8---| 
 |                                    |                                    | 
 |  S S S S S S S S S S S S S S S S   |  S S S S S S S S S S S S S S S S   | 
e|------------------------------------|--------------------------0-0-------| 
B|--3-3-3-3-3-3-3-3-3-3-3-3-3-3-3-3---|--3-3-3-3-3-3-3-3-3-3-3-3-6-6-6-6---| 
G|------------------------------------|------------------------------------| 
D|------------------------------------|------------------------------------| 
A|------------------------------------|------------------------------------| 
E|------------------------------------|------------------------------------| 
A|------------------------------------|------------------------------------| 

    S S S S+S S S S S S+S S S S S S     +S S S S S S+S S S S S S S  S  S  S 
e|------------------------------------|----------------------------------------| 
B|------------------------------------|----------------------------------------| 
G|------------------------------------|----------------------------------------| 
D|------------------------------------|----------------------------------------| 
A|------------------------------------|----------------------------------------| 
E|--5-5-5-5---5-6-6-6-6---6-6-6-6-7---|----7-7-7-7-7---7-7/8-8-8-8--8--8--8----| 
A|--5-5-5-5---5-6-6-6-6---6-6-6-6-7---|----7-7-7-7-7---7-7/8-8-8-8--8--8--8----| 
 |                                    |                                        | 
 |  S S S S S S S S S S S S S S S S   |  S S S S S S S S S S S S S  S  S  S    | 
e|------------------------------------|----------------------------------------| 
B|--3-3-3-3-3-3-3-3-3-3-3-3-3-3-3-3---|--3-3-3-3-3-3-3-3-3-3-3-3-10-10-10-10---| 
G|------------------------------------|----------------------------------------| 
D|------------------------------------|----------------------------------------| 
A|------------------------------------|----------------------------------------| 
E|------------------------------------|----------------------------------------| 
A|------------------------------------|----------------------------------------| 

    S S S S+S S S S S S+S S S S S S     +S S S S S S+S S S S S S S S S S 
e|------------------------------------|------------------------------------| 
B|------------------------------------|------------------------------------| 
G|------------------------------------|------------------------------------| 
D|------------------------------------|------------------------------------| 
A|------------------------------------|------------------------------------| 
E|--5-5-5-5---5-6-6-6-6---6-6-6-6-7---|----7-7-7-7-7---7-7/8-8-8-8-8-8-8---| 
A|--5-5-5-5---5-6-6-6-6---6-6-6-6-7---|----7-7-7-7-7---7-7/8-8-8-8-8-8-8---| 
 |                                    |                                    | 
 |  S S S S S S S S S S S S S S S S   |  S S S S S S S S S S S S S S S S   | 
e|------------------------------------|--------------------------0-0-------| 
B|--3-3-3-3-3-3-3-3-3-3-3-3-3-3-3-3---|--3-3-3-3-3-3-3-3-3-3-3-3-6-6-6-6---| 
G|------------------------------------|------------------------------------| 
D|------------------------------------|------------------------------------| 
A|------------------------------------|------------------------------------| 
E|------------------------------------|------------------------------------| 
A|------------------------------------|------------------------------------| 


Pre-Chorus 2 
  Gtr 1 
    S S S S+S S E   S S+S S S S S S (x3) S S S S+S S E   S S+S S S S(E) 
e|------------------------------------|------------------------------------| 
B|o----------------------------------o|------------------------------------| 
G|------------------------------------|------------------------------------| 
D|------------------------------------|------------------------------------| 
A|------------------------------------|------------------------------------| 
E|o-5h6---------------------4h5------o|--5h6---------------------5-5-------| 
A|------0-1---0-4---0-1---0-----0-0---|------0-1---0-4---0-1---0-----------| 
PM                              . .   |                                    | 


Chorus 2 
  Gtr 1 
    S S S S+E   S S S S+E   S S S S      S S S S+E   S S S S+E   S S S S 
e|------------------------------------|------------------------------------| 
B|------------------------------------|------------------------------------| 
G|------------------------------------|------------------------------------| 
D|------------------------------------|------------------------------------| 
A|------------------------------------|------------------------------------| 
E|--1-1-1-1-----1-1-1-1-----1-1-1-1---|--5-5-5-5-----5-5-5-5-----5-5-5-5---| 
A|--1-1-1-1-----1-1-1-1-----1-1-1-1---|--5-5-5-5-----5-5-5-5-----5-5-5-5---| 

    S S S S+E   S S S S+E   S S S S      S S S S+E   S S S S+E   S S S S 
e|------------------------------------|------------------------------------| 
B|------------------------------------|------------------------------------| 
G|------------------------------------|------------------------------------| 
D|------------------------------------|------------------------------------| 
A|--7-7-7-7-----7-7-7-7-----7-7-7-7---|--3-3-3-3-----3-3-3-3-----3-3-3-3---| 
E|--5-5-5-5-----5-5-5-5-----5-5-5-5---|--1-1-1-1-----1-1-1-1-----1-1-1-1---| 
A|------------------------------------|------------------------------------| 

    S S S S+E   S S S S+E   S S S S      S S S S+E   S S S S+E   S S S S 
e|------------------------------------|------------------------------------| 
B|------------------------------------|------------------------------------| 
G|------------------------------------|------------------------------------| 
D|------------------------------------|------------------------------------| 
A|------------------------------------|------------------------------------| 
E|--1-1-1-1-----1-1-1-1-----1-1-1-1---|--5-5-5-5-----5-5-5-5-----5-5-5-5---| 
A|--1-1-1-1-----1-1-1-1-----1-1-1-1---|--5-5-5-5-----5-5-5-5-----5-5-5-5---| 

    S S S S+E   S S S S+E   S S S S      S S S S+E   S S S S+E   S S S S 
e|------------------------------------|------------------------------------| 
B|------------------------------------|------------------------------------| 
G|------------------------------------|------------------------------------| 
D|------------------------------------|------------------------------------| 
A|--7-7-7-7-----7-7-7-7-----7-7-7-7---|------------------------------------| 
E|--5-5-5-5-----5-5-5-5-----5-5-5-5---|--1-1-1-1-----1-1-1-1-----1-1-1-1---| 
A|------------------------------------|--1-1-1-1-----1-1-1-1-----1-1-1-1---| 


Interlude 
  Gtr 1 
    W                                           +W 
e|--------------------------------------------|--------------------------------------------| 
B|--------------------------------------------|--------------------------------------------| 
G|--------------------------------------------|--------------------------------------------| 
D|--------------------------------------------|--------------------------------------------| 
A|--------------------------------------------|--------------------------------------------| 
E|--5-----------------------------------------|--------------------------------------------| 
A|--5-----------------------------------------|--------------------------------------------| 
 |                                            |                                            | 
 |Gtr 2                                       |                                            | 
 |  S  S S  S S  S S  S S  S S  S S  S S  S   |  S  S S  S S  S S  S S  S S  S S  S S  S   | 
e|--------------------------------------------|--------------------------------------------| 
B|--------------------------------------------|--------------------------------------------| 
G|--------------------------------------------|--------------------------------------------| 
D|--14-0-15-0-12-0-14-0-15-0-12-0-14-0-15-0---|--12-0-14-0-15-0-12-0-14-0-15-0-12-0-14-0---| 
A|--------------------------------------------|--------------------------------------------| 
E|--------------------------------------------|--------------------------------------------| 
A|--------------------------------------------|--------------------------------------------| 

  Gtr 2   
    S  S S  S S  S S  S S  S S  S S  S S  S      S  S S  S S  S S  S S  S S  S S  S S  S 
e|--------------------------------------------|--------------------------------------------| 
B|--------------------------------------------|--------------------------------------------| 
G|--------------------------------------------|--------------------------------------------| 
D|--17-0-19-0-17-0-19-0-20-0-17-0-19-0-20-0---|--17-0-19-0-20-0-17-0-19-0-20-0-17-0-19-0---| 
A|--------------------------------------------|--------------------------------------------| 
E|--------------------------------------------|--------------------------------------------| 
A|--------------------------------------------|--------------------------------------------| 

    S  S S  S S  S S  S S  S S  S S  S S  S      S  S S  S S  S S  S S  S S  S S  S S  S    
e|--------------------------------------------|--------------------------------------------| 
B|--------------------------------------------|--------------------------------------------| 
G|--------------------------------------------|--------------------------------------------| 
D|--14-0-15-0-12-0-14-0-15-0-12-0-14-0-15-0---|--12-0-14-0-15-0-12-0-14-0-15-0-12-0-14-0---| 
A|--------------------------------------------|--------------------------------------------| 
E|--------------------------------------------|--------------------------------------------| 
A|--------------------------------------------|--------------------------------------------| 

    S  S S  S S  S S  S S  S S  S S  S S  S      S  S S  S S  S S  S S  S S  S S  S S  S 
e|--------------------------------------------|--------------------------------------------| 
B|--------------------------------------------|--------------------------------------------| 
G|--------------------------------------------|--------------------------------------------| 
D|--17-0-19-0-17-0-19-0-20-0-17-0-19-0-20-0---|--17-0-19-0-20-0-17-0-19-0-20-0-22-0-23-0---| 
A|--------------------------------------------|--------------------------------------------| 
E|--------------------------------------------|--------------------------------------------| 
A|--------------------------------------------|--------------------------------------------| 

- Guitar 1 and 2 are separated here but are played at the same time. 

  Gtr 1 
    T T S  T T S+E   T T S  T T S+E   T T S  T T S     +E   T T S  T T S+E   T T S  T T S  T T T T T T T T 
e|---------------------------------------------------|------------------------------------------------------| 
B|o--------------------------------------------------|------------------------------------------------------| 
G|---------------------------------------------------|------------------------------------------------------| 
D|---------------------------------------------------|------------------------------------------------------| 
A|---------------------------------------------------|------------------------------------------------------| 
E|o--------------------------------------------------|------------------------------------------------------| 
A|--5-5-5--5-5-5-----5-5-5--5-5-5-----5-5-5--5-5-5---|------5-5-5--5-5-5-----5-5-5--5-5-5--5-5-5-5-5-5-5-5--| 

    T T S  T T S+E   T T S  T T S+E   T T S  T T S     +E   T T S  T T S+E   T T S  T T S  T T T T T T T T(x2) 
e|---------------------------------------------------|------------------------------------------------------| 
B|---------------------------------------------------|-----------------------------------------------------o| 
G|---------------------------------------------------|------------------------------------------------------| 
D|---------------------------------------------------|------------------------------------------------------| 
A|---------------------------------------------------|------------------------------------------------------| 
E|---------------------------------------------------|-----------------------------------------------------o| 
A|--5-5-5--5-5-5-----5-5-5--5-5-5-----5-5-5--5-5-5---|------5-5-5--5-5-5-----5-5-5--5-5-5--5-5-5-5-5-5-5-5--| 
                                                                                          Slowly bend these 

  Gtr 2                                                                                      
    S  S S  S S  S S  S S  S S  S S  S S  S      S  S S  S S  S S  S S  S S  S S  S S  S     
e|--------------------------------------------|--------------------------------------------| 
B|--------------------------------------------|--------------------------------------------| 
G|--------------------------------------------|--------------------------------------------| 
D|--14-0-15-0-12-0-14-0-15-0-12-0-14-0-15-0---|--12-0-14-0-15-0-12-0-14-0-15-0-12-0-14-0---| 
A|--------------------------------------------|--------------------------------------------| 
E|--------------------------------------------|--------------------------------------------| 
A|--------------------------------------------|--------------------------------------------| 

    S  S S  S S  S S  S S  S S  S S  S S  S      S  S S  S S  S S  S S  S S  S S  S S  S 
e|--------------------------------------------|--------------------------------------------| 
B|--------------------------------------------|--------------------------------------------| 
G|--------------------------------------------|--------------------------------------------| 
D|--20-0-19-0-17-0-19-0-20-0-17-0-19-0-20-0---|--17-0-19-0-20-0-17-0-19-0-20-0-17-0-19-0---| 
A|--------------------------------------------|--------------------------------------------| 
E|--------------------------------------------|--------------------------------------------| 
A|--------------------------------------------|--------------------------------------------| 

    S  S S  S S  S S  S S  S S  S S  S S  S      S  S S  S S  S S  S S  S S  S S  S S  S    
e|--------------------------------------------|--------------------------------------------| 
B|--------------------------------------------|--------------------------------------------| 
G|--------------------------------------------|--------------------------------------------| 
D|--14-0-15-0-12-0-14-0-15-0-12-0-14-0-15-0---|--12-0-14-0-15-0-12-0-14-0-15-0-12-0-14-0---| 
A|--------------------------------------------|--------------------------------------------| 
E|--------------------------------------------|--------------------------------------------| 
A|--------------------------------------------|--------------------------------------------| 

    S  S S  S S  S S  S S  S S  S S  S S  S      S  S S  S S  S S  S S  S S  S S  S S  S      W 
e|--------------------------------------------|--------------------------------------------|--------| 
B|--------------------------------------------|--------------------------------------------|--------| 
G|--------------------------------------------|--------------------------------------------|--------| 
D|--20-0-19-0-17-0-19-0-20-0-17-0-19-0-20-0---|--17-0-19-0-20-0-17-0-19-0-20-0-22-0-23-0---|--24----| 
A|--------------------------------------------|--------------------------------------------|--------| 
E|--------------------------------------------|--------------------------------------------|--------| 
A|--------------------------------------------|--------------------------------------------|--------| 


Chorus 3 
- No guitar first time through 

  Gtr 1 
    S S S S+E   S S S S+E   S S S S      S S S S+E   S S S S+E   S S S S 
e|------------------------------------|------------------------------------| 
B|------------------------------------|------------------------------------| 
G|------------------------------------|------------------------------------| 
D|------------------------------------|------------------------------------| 
A|------------------------------------|------------------------------------| 
E|--1-1-1-1-----1-1-1-1-----1-1-1-1---|--5-5-5-5-----5-5-5-5-----5-5-5-5---| 
A|--1-1-1-1-----1-1-1-1-----1-1-1-1---|--5-5-5-5-----5-5-5-5-----5-5-5-5---| 

    S S S S+E   S S S S+E   S S S S      S S S S+E   S S S S+E   S S S S 
e|------------------------------------|------------------------------------| 
B|------------------------------------|------------------------------------| 
G|------------------------------------|------------------------------------| 
D|------------------------------------|------------------------------------| 
A|--7-7-7-7-----7-7-7-7-----7-7-7-7---|--3-3-3-3-----3-3-3-3-----3-3-3-3---| 
E|--5-5-5-5-----5-5-5-5-----5-5-5-5---|--1-1-1-1-----1-1-1-1-----1-1-1-1---| 
A|------------------------------------|------------------------------------| 

    S S S S+E   S S S S+E   S S S S      S S S S+E   S S S S+E   S S S S 
e|------------------------------------|------------------------------------| 
B|------------------------------------|------------------------------------| 
G|------------------------------------|------------------------------------| 
D|------------------------------------|------------------------------------| 
A|------------------------------------|------------------------------------| 
E|--1-1-1-1-----1-1-1-1-----1-1-1-1---|--5-5-5-5-----5-5-5-5-----5-5-5-5---| 
A|--1-1-1-1-----1-1-1-1-----1-1-1-1---|--5-5-5-5-----5-5-5-5-----5-5-5-5---| 

    S S S S+E   S S S S+E   S S S S      S S S S+E   S S S S+E   S S S S 
e|------------------------------------|------------------------------------| 
B|------------------------------------|------------------------------------| 
G|------------------------------------|------------------------------------| 
D|------------------------------------|------------------------------------| 
A|--7-7-7-7-----7-7-7-7-----7-7-7-7---|------------------------------------| 
E|--5-5-5-5-----5-5-5-5-----5-5-5-5---|--1-1-1-1-----1-1-1-1-----1-1-1-1---| 
A|------------------------------------|--1-1-1-1-----1-1-1-1-----1-1-1-1---| 


Outro 
- Guitar 1 and 2 are separated here but are played at the same time. 

  Gtr 1 
    T T S  T T S+E   T T S  T T S+E   T T S  T T S     +E   T T S  T T S+E   T T S  T T S  T T T T T T T T 
e|---------------------------------------------------|------------------------------------------------------| 
B|o--------------------------------------------------|------------------------------------------------------| 
G|---------------------------------------------------|------------------------------------------------------| 
D|---------------------------------------------------|------------------------------------------------------| 
A|---------------------------------------------------|------------------------------------------------------| 
E|o--------------------------------------------------|------------------------------------------------------| 
A|--5-5-5--5-5-5-----5-5-5--5-5-5-----5-5-5--5-5-5---|------5-5-5--5-5-5-----5-5-5--5-5-5--5-5-5-5-5-5-5-5--| 

    T T S  T T S+E   T T S  T T S+E   T T S  T T S     +E   T T S  T T S+E   T T S  T T S  T T T T T T T T(x2) 
e|---------------------------------------------------|------------------------------------------------------| 
B|---------------------------------------------------|-----------------------------------------------------o| 
G|---------------------------------------------------|------------------------------------------------------| 
D|---------------------------------------------------|------------------------------------------------------| 
A|---------------------------------------------------|------------------------------------------------------| 
E|---------------------------------------------------|-----------------------------------------------------o| 
A|--5-5-5--5-5-5-----5-5-5--5-5-5-----5-5-5--5-5-5---|------5-5-5--5-5-5-----5-5-5--5-5-5--5-5-5-5-5-5-5-5--| 
                                                                                          Slowly bend these 

  Gtr 2                                                                                      
    S  S S  S S  S S  S S  S S  S S  S S  S      S  S S  S S  S S  S S  S S  S S  S S  S     
e|--------------------------------------------|--------------------------------------------| 
B|--------------------------------------------|--------------------------------------------| 
G|--------------------------------------------|--------------------------------------------| 
D|--14-0-15-0-12-0-14-0-15-0-12-0-14-0-15-0---|--12-0-14-0-15-0-12-0-14-0-15-0-12-0-14-0---| 
A|--------------------------------------------|--------------------------------------------| 
E|--------------------------------------------|--------------------------------------------| 
A|--------------------------------------------|--------------------------------------------| 

    S  S S  S S  S S  S S  S S  S S  S S  S      S  S S  S S  S S  S S  S S  S S  S S  S 
e|--------------------------------------------|--------------------------------------------| 
B|--------------------------------------------|--------------------------------------------| 
G|--------------------------------------------|--------------------------------------------| 
D|--17-0-19-0-17-0-19-0-20-0-17-0-19-0-20-0---|--17-0-19-0-20-0-17-0-19-0-20-0-17-0-19-0---| 
A|--------------------------------------------|--------------------------------------------| 
E|--------------------------------------------|--------------------------------------------| 
A|--------------------------------------------|--------------------------------------------| 

    S  S S  S S  S S  S S  S S  S S  S S  S      S  S S  S S  S S  S S  S S  S S  S S  S    
e|--------------------------------------------|--------------------------------------------| 
B|--------------------------------------------|--------------------------------------------| 
G|--------------------------------------------|--------------------------------------------| 
D|--14-0-15-0-12-0-14-0-15-0-12-0-14-0-15-0---|--12-0-14-0-15-0-12-0-14-0-15-0-12-0-14-0---| 
A|--------------------------------------------|--------------------------------------------| 
E|--------------------------------------------|--------------------------------------------| 
A|--------------------------------------------|--------------------------------------------| 

    S  S S  S S  S S  S S  S S  S S  S S  S      S  S S  S S  S S  S S  S S  S S  S S  S 
e|--------------------------------------------|--------------------------------------------| 
B|--------------------------------------------|--------------------------------------------| 
G|--------------------------------------------|--------------------------------------------| 
D|--17-0-19-0-17-0-19-0-20-0-17-0-19-0-20-0---|--17-0-19-0-20-0-17-0-19-0-20-0-22-0-23-0---| 
A|--------------------------------------------|--------------------------------------------| 
E|--------------------------------------------|--------------------------------------------| 
A|--------------------------------------------|--------------------------------------------| 


- End on: 
  Gtr 1 
    - 
e|------------------------------------|| 
B|------------------------------------|| 
G|------------------------------------|| 
D|------------------------------------|| 
A|------------------------------------|| 
E|--5---------------------------------|| 
A|--5---------------------------------|| 
 |                                    || 
 |Gtr 2                               || 
 |  -                                 || 
e|------------------------------------|| 
B|------------------------------------|| 
G|------------------------------------|| 
D|--24--------------------------------|| 
A|------------------------------------|| 
E|------------------------------------|| 
A|------------------------------------|| 


************************************ 

|  PM  Palm mute 
|  T   Thirty-second note 
|  S   Sixteenth note 
|  E   Eighth note 
|  W   Whole note 
| (N)  Rest 
|  +   Add note value 
|o o|  Reprise 

************************************ 
	  

Full key step upFull key step up
Half key step upHalf key step up
Half key step downHalf key step down
Full key step downFull key step down
Search Paypal
auto scroll beats size up size down change color hide chords drawings
tab show chords e-chords YouTube Clip e-chords hide all tabs e-chords go to top tab