Lacey Sturm

Rot

Lacey Sturm

tabs

by  JOAOEWERTON

save to print version add songbook text version e-mail correct tuner
chordsukulelecavacokeyboardtabbassdrumsharmonicaflute Guitar Pro
close

there isn't a video lesson for this song

chords

Rot

	  		
Intro 

D|---------------------------------------------------------------------------| 
A|---------------------------------------------------------------------------| 
F|---------------------------------------------------------------------------| 
C|---7----8----7----8--8/10---7----8-----7-----------------------------------| 
G|-5----5----5----5---------5----5----8-----8-8/10---------------------------| 
C|---------------------------------------------------------------------------| 

D|---------------------------------------------------------------------------| 
A|---------------------------------------------------------------------------| 
F|---------------------------------------------------------------------------| 
C|---7----8----7----8--8/10---7----8-----7-----------------------------------| 
G|-5----5----5----5---------5----5----8-----8-8/10---------------------------| 
C|---------------------------------------------------------------------------| 

D|---------------------------------------------------------------------------| 
A|---------------------------------------------------------------------------| 
F|---------------------------------------------------------------------------| 
C|---7----8----7----8--8/10---7----8-----7-----------------------------------| 
G|-5----5----5----5---------5----5----8-----8-8/10---------------------------| 
C|---------------------------------------------------------------------------| 

D|---------------------------------------------------------------------------| 
A|---------------------------------------------------------------------------| 
F|---------------------------------------------------------------------------| 
C|---7----8----7----8--8/10---7----8-----7-----------------------------------| 
G|-5----5----5----5---------5----5----8-----8-8/10---------------------------| 
C|---------------------------------------------------------------------------| 

D|---------------------------------------------------------------------------| 
A|---------------------------------------------------------------------------| 
F|---------------------------------------------------------------------------| 
C|---7----8----7----8--8/10---7----8-----7-----------------------------------| 
G|-5----5----5----5---------5----5----8-----8-8/10---------------------------| 
C|---------------------------------------------------------------------------| 

D|---------------------------------------------------------------------------| 
A|---------------------------------------------------------------------------| 
F|---------------------------------------------------------------------------| 
C|---7----8----7----8--8/10---7----8-----7-----------------------------------| 
G|-5----5----5----5---------5----5----8-----8-8/10---------------------------| 
C|---------------------------------------------------------------------------| 

D|---------------------------------------------------------------------------| 
A|---------------------------------------------------------------------------| 
F|---------------------------------------------------------------------------| 
C|---7----8----7----8--8/10---7----8-----------------------------------------| 
G|-5----5----5----5---------5----5-------------------------------------------| 
C|---------------------------------------------------------------------------| 

Intro 

D|---------------------------------------------------------------------------| 
A|---------------------------------------------------------------------------| 
F|---------------------------------------------------------------------------| 
C|-7-7-7-7-7-7-7-7-7-7-7-7-7-7-7-7-8-8-8-8-8-8-8-8-8-8-8-8-8-8-8-8-----------| 
G|-5-5-5-5-5-5-5-5-5-5-5-5-5-5-5-5-5-5-5-5-5-5-5-5-5-5-5-5-5-5-5-5-----------| 
C|---------------------------------------------------------------------------| 

"I need a lightning bolt to raise me from this grave, here comes fresh" 
D|---------------------------------------------------------------------------| 
A|---------------------------------------------------------------------------| 
F|---------------------------------------------------------------------------| 
C|-3-3-3-3-3-3-3-3-3-3-3-3-3-3-3-3-5-5-5-5-5-5-5-5-5-5-5-5-5-5-5-5-----------| 
G|-1-1-1-1-1-1-1-1-1-1-1-1-1-1-1-1-3-3-3-3-3-3-3-3-3-3-3-3-3-3-3-3-----------| 
C|---------------------------------------------------------------------------| 

"fire, fresh fire" 
D|---------------------------------------------------------------------------| 
A|---------------------------------------------------------------------------| 
F|-7-7-7-7-7-7-7-7-7-7-7-7-7-7-7-7-7-7-7-7-7-7-7-7-7-7-7-7-7-7-7-7-----------| 
C|-7-7-7-7-7-7-7-7-7-7-7-7-7-7-7-7-8-8-8-8-8-8-8-8-8-8-8-8-8-8-8-8-----------| 
G|-5-5-5-5-5-5-5-5-5-5-5-5-5-5-5-5-5-5-5-5-5-5-5-5-5-5-5-5-5-5-5-5-----------| 
C|---------------------------------------------------------------------------| 

"fresh fire" 
D|---------------------------------------------------------------------------------| 
A|---------------------------------------------------------------------------------| 
F|-12-12-12-12-12-12-12-12-12-12-12-12-12-12-12-12-7-7-7-7-7-7-7-7-7-7-7-7-7-7-7-7-| 
C|-12-12-12-12-12-12-12-12-12-12-12-12-12-12-12-12-7-7-7-7-7-7-7-7-7-7-7-7-7-7-7-7-| 
G|-10-10-10-10-10-10-10-10-10-10-10-10-10-10-10-10-5-5-5-5-5-5-5-5-5-5-5-5-5-5-5-5-| 
C|---------------------------------------------------------------------------------| 


Verse 

"So infatuated by the darkness..."  
D|----------------------------------------------------------------------------| 
A|----------------------------------------------------------------------------| 
F|-------------------------------------------------5-5--5-----------------7-6-| 
C|-0-0--0-0--0-0--0-0--0-0--0-0--0-0--0-0--3-3--3--5-5--5--0-0--0-0--0-0--7-6-| 
G|-0-0--0-0--0-0--0-0--0-0--0-0--0-0--0-0--3-3--3--3-3--3--0-0--0-0--0-0--5-4-| 
C|-0-0--0-0--0-0--0-0--0-0--0-0--0-0--0-0--3-3--3----------0-0--0-0--0-0------| 

"And still I want what's pure and want what's right..." 
D|----------------------------------------------------------------------------| 
A|----------------------------------------------------------------------------| 
F|-------------------------------------------------5-5--5---------------------| 
C|-0-0--0-0--0-0--0-0--0-0--0-0--0-0--0-0--3-3--3--5-5--5--0-0--0-0--0-0--0---| 
G|-0-0--0-0--0-0--0-0--0-0--0-0--0-0--0-0--3-3--3--3-3--3--0-0--0-0--0-0--0---| 
C|-0-0--0-0--0-0--0-0--0-0--0-0--0-0--0-0--3-3--3----------0-0--0-0--0-0--0---| 


Chorus 

"Beneath her, glowing eyes, the call like fire..." 
D|------------------------------------------------------------------------------| 
A|------------------------------------------------------------------------------| 
F|------------------------3-3-3-3-3-3-3-3---------5-5-5-5-7-7-7-7-7-7-----------| 
C|-12/0--0-0-0-0-0-0-0-0--3-3-3-3-3-3-3-3-3-3-3-3-5-5-5-5-7-7-7-7-7-7-----------| 
G|-12/0--0-0-0-0-0-0-0-0--1-1-1-1-1-1-1-1-3-3-3-3-3-3-3-3-5-5-5-5-5-5-----------| 
C|-12/0--0-0-0-0-0-0-0-0------------------3-3-3-3---------------------3-5-13-12-| 

"Oh my God, you've won the coldest battle we've fought..." 
D|----------------------------------------------------------------------------| 
A|----------------------------------------------------------------------------| 
F|------------------3-3-3-3-10/12-14/10---------5-5-5-5-x-7-x-5-x-7-x-12-10---| 
C|-0-12/0--0-0-0-0--3-3-3-3-------------3-3-3-3-5-5-5-5-x-7-x-5-x-7-x---------| 
G|-0-12/0--0-0-0-0--1-1-1-1-8/10--12/8--3-3-3-3-3-3-3-3-x-5-x-3-x-5-x-10-8----| 
C|-0-12/0--0-0-0-0----------------------3-3-3-3-------------------------------| 

"Rot..." 
D|---------------------| 
A|---------------------| 
F|---14---14---14------| 
C|-0-12-0-12-0-12-0----| 
G|-0----0----0----0----| 
C|-0-=--0----0----0----| 


Verse 

"Mirror, mirror on the wall" 
D|----------------------------------------------------------------------------| 
A|----------------------------------------------------------------------------| 
F|-14-14-14-14-14-14-14-14-14-14-14-14-14-14-14-14----------------------------| 
C|-12----12----12----12----12----12----12----12-------------------------------| 
G|----------------------------------------------------------------------------| 
C|----------------------------------------------------------------------------| 

"will there be glory if I fall?" 
D|----------------------------------------------------------------------------| 
A|----------------------------------------------------------------------------| 
F|-15-15-15-15-15-15-15-15-15-15-15-15-15-15-15-15----------------------------| 
C|-12----12----12----12----12----12----12----12-------------------------------| 
G|----------------------------------------------------------------------------| 
C|----------------------------------------------------------------------------| 

"Oh my God, save my soul" 
D|----------------------------------------------------------------------------| 
A|----------------------------------------------------------------------------| 
F|-12-12-12-12-12-12-12-12-19-19-19-19-19-19-19-19----------------------------| 
C|-10-10-10-10-10-10-10-10-17-17-17-17-17-17-17-17----------------------------| 
G|----------------------------------------------------------------------------| 
C|----------------------------------------------------------------------------| 


D|----------------------------------------------------------------------------| 
A|----------------------------------------------------------------------------| 
F|-14-14-14-14-14-14-14-14-14-14-14-14-14-14-14-14----------------------------| 
C|-12-12-12-12-12-12-12-12-12-12-12-12-12-12-12-12----------------------------| 
G|----------------------------------------------------------------------------| 
C|----------------------------------------------------------------------------| 

"I need a faith that's solid as concrete" 
D|----------------------------------------------------------------------------| 
A|----------------------------------------------------------------------------| 
F|-14-14-14-14-14-14-14-14-14-14-14-14-14-14-14-14----------------------------| 
C|-12-12-12-12-12-12-12-12-12-12-12-12-12-12-12-12----------------------------| 
G|----------------------------------------------------------------------------| 
C|----------------------------------------------------------------------------| 

"but the impact's broken both my knees" 
D|----------------------------------------------------------------------------| 
A|----------------------------------------------------------------------------| 
F|-15-15-15-15-15-15-15-15-15-15-15-15-15-15-15-15----------------------------| 
C|-12-12-12-12-12-12-12-12-12-12-12-12-12-12-12-12----------------------------| 
G|----------------------------------------------------------------------------| 
C|----------------------------------------------------------------------------| 

"Oh my God, save my soul" 
D|----------------------------------------------------------------------------| 
A|----------------------------------------------------------------------------| 
F|-12-12-12-12-12-12-12-12-19-19-19-19-19-19-19-19----------------------------| 
C|-10-10-10-10-10-10-10-10-17-17-17-17-17-17-17-17----------------------------| 
G|----------------------------------------------------------------------------| 
C|----------------------------------------------------------------------------| 


D|----------------------------------------------------------------------------| 
A|----------------------------------------------------------------------------| 
F|-14-14-14-14-14-14-14-14-14-14-14-14-14-14-14-14----------------------------| 
C|-12-12-12-12-12-12-12-12-12-12-12-12-12-12-12-12----------------------------| 
G|----------------------------------------------------------------------------| 
C|----------------------------------------------------------------------------| 


Chorus 

"Beneath her, glowing eyes, the call like fire..." 
D|------------------------------------------------------------------------------| 
A|------------------------------------------------------------------------------| 
F|------------------------3-3-3-3-3-3-3-3---------5-5-5-5-7-7-7-7-7-7-----------| 
C|-12/0--0-0-0-0-0-0-0-0--3-3-3-3-3-3-3-3-3-3-3-3-5-5-5-5-7-7-7-7-7-7-----------| 
G|-12/0--0-0-0-0-0-0-0-0--1-1-1-1-1-1-1-1-3-3-3-3-3-3-3-3-5-5-5-5-5-5-----------| 
C|-12/0--0-0-0-0-0-0-0-0------------------3-3-3-3---------------------3-5-13-12-| 

"Oh my God, you've won the coldest battle we've fought..." 
D|----------------------------------------------------------------------------| 
A|----------------------------------------------------------------------------| 
F|------------------3-3-3-3-10/12-14/10---------5-5-5-5-x-7-x-5-x-7-x-12-10---| 
C|-0-12/0--0-0-0-0--3-3-3-3-------------3-3-3-3-5-5-5-5-x-7-x-5-x-7-x---------| 
G|-0-12/0--0-0-0-0--1-1-1-1-8/10--12/8--3-3-3-3-3-3-3-3-x-5-x-3-x-5-x-10-8----| 
C|-0-12/0--0-0-0-0----------------------3-3-3-3-------------------------------| 


Solo 

D|----------------------------------------------------------------------------| 
A|----------------------------------------------------------------------------| 
F|----------------------------------------------------------------------------| 
C|-------------------------5-5-3-3-------------------------3-5-5-5------------| 
G|-5-5-5-5-3-3-3-3-5-5-5-5---------5-5-5-5-3-3-3-3-5-5-5-5--------------------| 
C|----------------------------------------------------------------------------| 

D|---------------------------------------------------------------------------------| 
A|---------------------------------------------------------------------------------| 
F|---------------------------------------------------------------------------------| 
C|-------------------------5-5-3-3-------------------------------------15-17-17-17-| 
G|-5-5-5-5-3-3-3-3-5-5-5-5---------17-17-17-17-15-15-15-15-17-17-17-17-------------| 
C|---------------------------------------------------------------------------------| 

D|---------------------------------------------------------------------------------| 
A|---------------------------------------------------------------------------------| 
F|---------------------------------------------------------------------------------| 
C|-19-19-19-19-19-19-19-19-19-19-19-19-19-19-19-19-17-17-17-17-17-17-17-17---------| 
G|---------------------------------------------------------------------------------| 
C|---------------------------------------------------------------------------------| 

D|----------------------------------------------------------------------------------------------------| 
A|----------------------------------------------------------------------------------------------------| 
F|-------------------------15-15-15-15-15-15-15-15-------------------------17-17-17-17-17-17-17-17-19-| 
C|-15-15-15-15-15-15-15-15-------------------------17-17-17-17-17-17-17-17----------------------------| 
G|----------------------------------------------------------------------------------------------------| 
C|----------------------------------------------------------------------------------------------------| 


Bridge 

"fresh fire..." 
D|----------------------------------------------------------------------------| 
A|----------------------------------------------------------------------------| 
F|---------5-5-5-5--------------------------5-5-5-5---------------------------| 
C|-3-3-3-3-5-5-5-5-0-0-0-0-0-0-0-0--3-3-3-3-5-5-5-5-0-0-0-0-0-0-0-0-----------| 
G|-3-3-3-3-3-3-3-3-0-0-0-0-0-0-0-0--3-3-3-3-3-3-3-3-0-0-0-0-0-0-0-0-----------| 
C|-3-3-3-3---------0-0-0-0-0-0-0-0--3-3-3-3---------0-0-0-0-0-0-0-0-----------| 

"Oh my God, you've won the coldest battle we've fought..." 
D|----------------------------------------------------------------------------| 
A|----------------------------------------------------------------------------| 
F|-----------------------10/12-14/10---------5-5-5-5-x-7-x-5-x-7-x-12-10------| 
C|-X-5-5-X-8-8--0-0-0-0--------------3-3-3-3-5-5-5-5-x-7-x-5-x-7-x------------| 
G|-X-5-5-X-8-8--0-0-0-0--8/10--12/8--3-3-3-3-3-3-3-3-x-5-x-3-x-5-x-10-8-------| 
C|-X-5-5-X-8-8--0-0-0-0--------------3-3-3-3----------------------------------| 


Outro 

D|------------------| 
A|------------------| 
F|------------------| 
C|--0---0---0-0-----| 
G|--0---0---0-0-----| 
C|--0---0---0-0-----| 

That's it! Hope you enjoyed it, and thanks for checking out my tab! If you have any questions or corrections 
feel free to leave them in the comments box below. Have fun, and God bless! 

************************************ 
| /   slide up 
| x   Mute note  
************************************ 
		  

See also:

tabs Deep Purple - Demonds Eye tabs Deep Purple - Money Talks tabs Ira! - Eu Quero Sempre Mais (Com Pitty, intro) tabs Albert Hammond Jr - Holiday tabs Deep Purple - Smoke on the water (intro) tabs Deep Purple - Smoke on the Water (ver. 2)
e-chords

Other versions:

tabs Dry Kill Logic - Rot tabs Lacey Sturm - Rot tabs Wyrd - Rota tabs Dizzy Mizz Lizzy - Rotator tabs Cliff Richard - Rote Lippen Soll Man Kussen tabs Pull Down - Rotina
auto scroll beats size up size down change color hide chords drawings
tab show chords e-chords YouTube Clip e-chords hide all tabs e-chords go to top tab

share