Lacey Sturm

Life Screams

Lacey Sturm

tabs

by  BOMBAXXX

save to print version add songbook text version e-mail correct tuner
chordsukulelecavacokeyboardtabbassdrumsharmonicaflute Guitar Pro
close

there isn't a video lesson for this song

chords

Life Screams

	  		
verse 1 
(start at 0:22) 
E|---------------------------------------------------------------------------| 
B|---------------------------------------------------------------------------| 
G|-6---6---6---6---5---5---3---3---6---6---6---6---5---5---3---3-------------| 
d|---8---8---8---8---6---6---4---4---8---8---8---8---6---6---4---4-----------| 
A|---------------------------------------------------------------------------| 
D|---------------------------------------------------------------------------| 

E|---------------------------------------------------------------------------| 
B|---------------------------------------------------------------------------| 
G|-6---6---6---6---5---5---3---3---6---6---6---6---5---5---3---3-------------| 
d|---8---8---8---8---6---6---4---4---8---8---8---8---6---6---4---4-----------| 
A|---------------------------------------------------------------------------| 
D|---------------------------------------------------------------------------| 

E|---------------------------------------------------------------------------| 
B|---------------------------------------------------------------------------| 
G|-6---6---6---6---5---5---3---3---6---6---6---6---5---5---3---3-------------| 
d|---8---8---8---8---6---6---4---4---8---8---8---8---6---6---4---4-----------| 
A|---------------------------------------------------------------------------| 
D|---------------------------------------------------------------------------| 

E|---------------------------------------------------------------------------| 
B|---------------------------------------------------------------------------| 
G|-6---6---6---6---5---5---3---3---6---6---6---6---5---5---3---3-------------| 
d|---8---8---8---8---6---6---4---4---8---8---8---8---6---6---4---4-----------| 
A|---------------------------------------------------------------------------| 
D|---------------------------------------------------------------------------| 

Chorus 
E|---------------------------------------------------------------------------| 
B|---------------------------------------------------------------------------| 
G|---------------------------------------------------------------------------| 
d|-4-4-4-4-11-11-11-11-6-6-6-6-8-8-6-6-4-4-4-4-11-11-11-11-6-6-6-6-8-8-6-6---| 
A|-4-4-4-4-11-11-11-11-6-6-6-6-8-8-6-6-4-4-4-4-11-11-11-11-6-6-6-6-8-8-6-6---| 
D|-4-4-4-4-11-11-11-11-6-6-6-6-8-8-6-6-4-4-4-4-11-11-11-11-6-6-6-6-8-8-6-6---| 

E|---------------------------------------------------------------------------| 
B|---------------------------------------------------------------------------| 
G|---------------------------------------------------------------------------| 
d|-4-4-4-4-6-6-6-6-8-8-8-8-8-8-8-6-4-4-4-4-6-6-6-6-8-8-8-8-6-----------------| 
A|-4-4-4-4-6-6-6-6-8-8-8-8-8-8-8-6-4-4-4-4-6-6-6-6-8-8-8-8-6-----------------| 
D|-4-4-4-4-6-6-6-6-8-8-8-8-8-8-8-6-4-4-4-4-6-6-6-6-8-8-8-8-6-----------------| 

verse 2 
(start at 1:27) 
E|---------------------------------------------------------------------------| 
B|---------------------------------------------------------------------------| 
G|-6---6---6---6---5---5---3---3---6---6---6---6---5---5---3---3-------------| 
d|---8---8---8---8---6---6---4---4---8---8---8---8---6---6---4---4-----------| 
A|---------------------------------------------------------------------------| 
D|---------------------------------------------------------------------------| 

E|---------------------------------------------------------------------------| 
B|---------------------------------------------------------------------------| 
G|-6---6---6---6---5---5---3---3---6---6---6---6---5---5---3---3-------------| 
d|---8---8---8---8---6---6---4---4---8---8---8---8---6---6---4---4-----------| 
A|---------------------------------------------------------------------------| 
D|---------------------------------------------------------------------------| 

E|---------------------------------------------------------------------------| 
B|---------------------------------------------------------------------------| 
G|-6---6---6---6---5---5---3---3---6---6---6---6---5---5---3---3-------------| 
d|---8---8---8---8---6---6---4---4---8---8---8---8---6---6---4---4-----------| 
A|---------------------------------------------------------------------------| 
D|---------------------------------------------------------------------------| 

E|---------------------------------------------------------------------------| 
B|---------------------------------------------------------------------------| 
G|-6---6---6---6---5---5---3-------------------------------------------------| 
d|---8---8---8---8---6---6---------------------------------------------------| 
A|---------------------------------------------------------------------------| 
D|---------------------------------------------------------------------------| 

Chorus 
E|---------------------------------------------------------------------------| 
B|---------------------------------------------------------------------------| 
G|---------------------------------------------------------------------------| 
d|-4-4-4-4-11-11-11-11-6-6-6-6-8-8-6-6-4-4-4-4-11-11-11-11-6-6-6-6-8-8-6-6---| 
A|-4-4-4-4-11-11-11-11-6-6-6-6-8-8-6-6-4-4-4-4-11-11-11-11-6-6-6-6-8-8-6-6---| 
D|-4-4-4-4-11-11-11-11-6-6-6-6-8-8-6-6-4-4-4-4-11-11-11-11-6-6-6-6-8-8-6-6---| 

E|---------------------------------------------------------------------------| 
B|---------------------------------------------------------------------------| 
G|---------------------------------------------------------------------------| 
d|-4-4-4-4-6-6-6-6-8-8-8-8-8-8-8-6-4-4-4-4-6-6-6-6-8-8-8-8-6-6-6-6-----------| 
A|-4-4-4-4-6-6-6-6-8-8-8-8-8-8-8-6-4-4-4-4-6-6-6-6-8-8-8-8-6-6-6-6-----------| 
D|-4-4-4-4-6-6-6-6-8-8-8-8-8-8-8-6-4-4-4-4-6-6-6-6-8-8-8-8-6-6-6-6-----------| 

Bridge: Guitar 1 
E|---------------------------------------------------------------------------| 
B|---------------------------------------------------------------------------| 
G|---------------------------------------------------------------------------| 
d|-8-8-8-8-8-8-8-8-6-6-6-6-6-6-6-6-8-8-8-8-8-8-8-8-6-6-6-6-6-6-6-6-----------| 
A|-8-8-8-8-8-8-8-8-6-6-6-6-6-6-6-6-8-8-8-8-8-8-8-8-6-6-6-6-6-6-6-6-----------| 
D|-8-8-8-8-8-8-8-8-6-6-6-6-6-6-6-6-8-8-8-8-8-8-8-8-6-6-6-6-6-6-6-6-----------| 

E|---------------------------------------------------------------------------| 
B|---------------------------------------------------------------------------| 
G|---------------------------------------------------------------------------| 
d|-8-8-8-8-8-8-8-8-6-6-6-6-6-6-6-6-8-8-8-8-8-8-8-8-6-6-6-6-6-6-6-6-----------| 
A|-8-8-8-8-8-8-8-8-6-6-6-6-6-6-6-6-8-8-8-8-8-8-8-8-6-6-6-6-6-6-6-6-----------| 
D|-8-8-8-8-8-8-8-8-6-6-6-6-6-6-6-6-8-8-8-8-8-8-8-8-6-6-6-6-6-6-6-6-----------| 


Bridge: Guitar 2 
E|---------------------------------------------------------------------------| 
B|-14-14-14-14-14-14-14-14-13-13-13-13---------------------------------------| 
G|-------------------------------------15-15-15-15---------------------------| 
d|---------------------------------------------------------------------------| 
A|---------------------------------------------------------------------------| 
D|---------------------------------------------------------------------------| 

E|---------------------------------------------------------------------------| 
B|-14-14-14-14-14-14-14-14-13-13-13-13---------------------------------------| 
G|-------------------------------------15-15-15-15---------------------------| 
d|---------------------------------------------------------------------------| 
A|---------------------------------------------------------------------------| 
D|---------------------------------------------------------------------------| 

E|---------------------------------------------------------------------------| 
B|-14-14-14-14-14-14-14-14-13-13-13-13---------------------------------------| 
G|-------------------------------------15-15-15-15---------------------------| 
d|---------------------------------------------------------------------------| 
A|---------------------------------------------------------------------------| 
D|---------------------------------------------------------------------------| 

E|---------------------------------------------------------------------------| 
B|-14-14-14-14-14-14-14-14-13-13-13-13---------------------------------------| 
G|-------------------------------------15-15-15-15---------------------------| 
d|---------------------------------------------------------------------------| 
A|---------------------------------------------------------------------------| 
D|---------------------------------------------------------------------------| 

Chorus 
(start at 2:44) 
E|---------------------------------------------------------------------------| 
B|---------------------------------------------------------------------------| 
G|---------------------------------------------------------------------------| 
d|-4-4-4-4-11-11-11-11-6-6-6-6-8-8-6-6-4-4-4-4-11-11-11-11-6-6-6-6-8-8-6-6---| 
A|-4-4-4-4-11-11-11-11-6-6-6-6-8-8-6-6-4-4-4-4-11-11-11-11-6-6-6-6-8-8-6-6---| 
D|-4-4-4-4-11-11-11-11-6-6-6-6-8-8-6-6-4-4-4-4-11-11-11-11-6-6-6-6-8-8-6-6---| 

E|---------------------------------------------------------------------------| 
B|---------------------------------------------------------------------------| 
G|---------------------------------------------------------------------------| 
d|-4-4-4-4-6-6-6-6-8-8-8-8-8-8-8-6-4-4-4-4-6-6-6-6-8-8-8-8-8-8-8-8-4-4-4-4-6-| 
A|-4-4-4-4-6-6-6-6-8-8-8-8-8-8-8-6-4-4-4-4-6-6-6-6-8-8-8-8-8-8-8-8-4-4-4-4-6-| 
D|-4-4-4-4-6-6-6-6-8-8-8-8-8-8-8-6-4-4-4-4-6-6-6-6-8-8-8-8-8-8-8-8-4-4-4-4-6-| 
 
		  

See also:

tabs Deep Purple - Demonds Eye tabs Deep Purple - Money Talks tabs Ira! - Eu Quero Sempre Mais (Com Pitty, intro) tabs Albert Hammond Jr - Holiday tabs Deep Purple - Smoke on the water (intro) tabs Deep Purple - Smoke on the Water (ver. 2)
e-chords

Other versions:

tabs Lacey Sturm - Life Screams
auto scroll beats size up size down change color hide chords drawings
tab show chords e-chords YouTube Clip e-chords hide all tabs e-chords go to top tab

share