Kenny G

home > Kenny G

Songbird Tab

Kenny G

Difficulty: nolevelnolevel

by fernsantana

tuner correct add songbook print version text version save to e-mail
chordsukulelecavacokeyboardtabbassdrumsharmonicsflute Guitar Pro
chords

Songbird

	  Intro 

e|-----------------------------------------------------| 
B|----------------------------------7-8--7-8-10/12-11~~| 
G|-9-10-9-11/12\11\-9\7/9~~-7-9-7-9--------------------| 
D|-----------------------------------------------------| 
A|-----------------------------------------------------| 
E|-----------------------------------------------------| 

e|-----------------------------------------------10----| 
B|---------------------8-7h8~-10/12\11-14-11/12~---12~-| 
G|-----------7h9-7h9-7---------------------------------| 
D|--9\7\2/4~-------------------------------------------| 
A|-----------------------------------------------------| 
E|-----------------------------------------------------| 


************************************ 

| h   Hammer-on 
| /   Slide up 
| \   Slide down 
| ~   Vibrato 

************************************ 
	  

there isn't a video lesson for this song

request
Search
auto scroll beats size up size down change color hide chords drawings
tab show chords e-chords YouTube Clip e-chords hide all tabs e-chords go to top tab