Kamala

Shame

Kamala

tabs Intermediate intermediate

by  ANDRADE_NICKO

save to print version add songbook text version e-mail correct tuner
chordsukulelecavacokeyboardtabbassdrumsharmonicaflute Guitar Pro
close

there isn't a video lesson for this song

chords

Shame

	  		Shame 

Artista: Kamala 
Album: Kamala (2008) 
Música: Raphael Olmos 

Db|-----------------------------| 
Ab|-----------------------------| 
E |-----------------------------| 
B |-----------------------------| 
Gb|-7---7---8----7---7---8-0000-| 
B |---0---0---00---0---0---0000-| 

Db|-----------------------------------------------------------------------------------------------------------------------| 
Ab|------------------------------------10-13Bend13Bend------------------------13P10--13P10--13P10--13P10---13131313131313-| 
E |----10-----10---12Bend-10----10---12---12Bend12Bend---10-----10--12Bend10-------12-----12-----12-----12-12121212121212-| 
B |-12---14-12--12-----------12---14-------------------12--14-12--12------------------------------------------------------| 
Gb|-----------------------------------------------------------------------------------------------------------------------| 
B |-----------------------------------------------------------------------------------------------------------------------| 

Db|-----------------------------------------------------| 
Ab|-----------------------------------------------------| 
E |-----------------------------------------------------| 
B |-----------------------------------------------------| 
Gb|-2-0-2-0-3-00-2-0-2-0-3-0000-2-0-2-0-3-00-2-0-2-0----| 
B |-2-0-2-0-3-00-2-0-2-0-3-0000-2-0-2-0-3-00-2-0-2-0-3H-| 

Db|-------------------------------------------------------------------------------------| 
Ab|-------------------------------------------------------------------------------------| 
E |-------------------------------------------------------------------------------------| 
B |-------------------------------------------------------------------------------------| 
Gb|-2----2-----2-----00000000----------------14-----14-----14-----00000000--------------| 
B |--3-0---3-0---3-0-00000000-(4 vezes)-3H-----15-0---15-0---15-0-00000000-(4 vezes)-3H-| 

End. 
		  

Full key step upFull key step up
Half key step upHalf key step up
Half key step downHalf key step down
Full key step downFull key step down
auto scroll beats size up size down change color hide chords drawings
tab show chords e-chords YouTube Clip e-chords hide all tabs e-chords go to top tab

share