Justice

New Lands

Justice

tabs Intermediate intermediate

by  PAULLET3

save to print version add songbook text version e-mail correct tuner
chordsukulelecavacokeyboardtabbassdrumsharmonicaflute Guitar Pro
close

there isn't a video lesson for this song

chords

New Lands

	  		

  
0:00 - 0:52 
Intro (staccato, finger-picked)                                        1st ending 
      ^     ^     ^     ^     ^   ^   ^     ^     ^     ^     ^   ^     ^     ^     ^     ^       
e-|---5-5-5-4-4-4-2-2-2-2-2-2-2-2-2-2-5-5-5-4-4-4-2-2-2-2-2-2-2-2-2-2-|-7-7-7-9-9-9-5-5-5-7-7-7--| 
B-|*--0-0-0-0-0-0-0-0-0-0-0-0-0-0-0-0-0-0-0-0-0-0-0-0-0-0-0-0-0-0-0-0-|-0-0-0-0-0-0-0-0-0-0-0-0--| 
G-|-------------------------------------------------------------------|--------------------------| 
D-|-------------------------------------------------------------------|--------------------------| 
A-|*------------------------------------------------------------------|--------------------------| 
D-|-------------------------------------------------------------------|--------------------------| 

                 ^     ^     ^     ^     ^   ^  
e-|--4~-5~-4~-0~-4-4-4-0-0-0-2-2-2-2-2-2-2-2-2-2------| 
B-|--0~-0~-0~-0~-0-0-0-0-0-0-0-0-0-0-0-0-0-0-0-0-----*| 
G-|---------------------------------------------------| repeat intro 
D-|---------------------------------------------------| 
A-|--------------------------------------------------*| 
D-|---------------------------------------------------| 

2nd (and 3rd) ending 
     ^     ^     ^        ^                                 ^     ^     ^   ^  
e-|--7-7-7-9-9-9-10-10-10-12-12-12-9~-10~-9~-5~-9-7-5-4-4-0-2-2-2-2-2-2-2-2-2-2--------| 
B-|--0-0-0-0-0-0-0--0--0--0--0--0--0~-0~--0~-0~-0-0-0-0-0-0-0-0-0-0-0-0-0-0-0-0-------*| 
G-|------------------------------------------------------------------------------------| 
D-|------------------------------------------------------------------------------------| 
A-|-----------------------------------------------------------------------------------*| 
D-|------------------------------------------------------------------------------------| 

0:52 - 1:00 
4th ending 
     ^     ^     ^        ^                 ^     ^       ^     ^        ^     ^    
e-|--7-7-7-9-9-9-10-10-10-12-12-12-9-10-9-5-7-7-7-9-9-9-9-10-10-12-12-12-12-12-12-12---| 
B-|--0-0-0-0-0-0-0--0--0--0--0--0--0-0--0-0-0-0-0-0-0-0-0-0--0--0--0--0--0--0--0--0----| 
G-|------------------------------------------------------------------------------------| 
D-|------------------------------------------------------------------------------------| 
A-|------------------------------------------------------------------------------------| 
D-|------------------------------------------------------------------------------------| 

1:00 - 1:15 
Chorus ("New Lands...") 
e-|---------------------------------------------------------------------------------------| 
B-|---------------------------------------------------------------------------------------| 
G-|--------------------------------------------------------------------------------2-4~---| 
D-|--9--7--6-------9--7--6--------9--7--6------------------------------------0-2-4--------| 
A-|--9--7--7-------9--7--7--------9--7--7--------------------------------0-2--------------| 
D-|--9--7--6-------9--7--6----6h7h9--7--6-----5---5-7-5---4---0---2-----------------------| 

1:15 - 2:00 
Solo 
e-|---------------------------------------------------------------------------------------| 
B-|---------------------------------------------------------------------------------------| 
G-|---------------------------------------------------------------------------------------| 
D-|--9~-----9\7\6\4/6/7~---11h12p11-9h11p9-7h9p7-6-7/12\7--7-9-7-6-/11\7/9~---------------| 
A-|---------------------------------------------------------------------------------------| 
D-|---------------------------------------------------------------------------------------| 

e-|---------------------------------------------------------------------------------------| 
B-|---------------------------------------------------------------------------------------| 
G-|---------------------------------------------------------------------------------------| 
D-|--13~----13\11\9\4/9/13~---13h14/16/18\16\14\12~---11/14\13~---------------------------| 
A-|---------------------------------------------------------------------------------------| 
D-|---------------------------------------------------------------------------------------| 

e-|---------------------------------------------------------------------------------------| 
B-|---------------------------------------------------------------------------------------| 
G-|---------------------------------------------------------------------------------------| 
D-|--13~----13-13-14/16-16-16-16\14\13\----13-13-14/16-16-16-14\12\9/12~---14-12\--6/14~--| 
A-|---------------------------------------------------------------------------------------| 
D-|---------------------------------------------------------------------------------------| 

Chorus x2 (2:00 - 2:30) 

2:16 - 2:30 
Chorus Solo (play during Chorus 2nd time through) 
e-|-----------------------------------------14-12--11--------------------------------------------| 
B-|--16\14\12-------16\14\12------12h14h16------------12-----8--8-10-12-/14\10\9-----------------| 
G-|----------------------------------------------------------------------------------------------| 
D-|----------------------------------------------------------------------------------------------| 
A-|----------------------------------------------------------------------------------------------| 
D-|----------------------------------------------------------------------------------------------| 

2:30 - 2:55 
Bridge (I think this is a bass, but this is written for guitar in drop D) 
e-|----------------------------------------------------------------------------------------------| 
B-|*---------------------------------------------------------------------------------------------| 
G-|----------------------------------------------------------------------------------------------| 
D-|----------------------------------------------------------------------------------------------| 
A-|*-2---2-2-2-2-2-2-2-2-2-2-2-----0-2~---2-2-2-2-2-2-2-2-2-2-2-----0-2~---2-2-2-2-2-2-2-2-2-2-2-| 
D-|----------------------------2-4------------------------------2-4------------------------------| 
    
e-|----------------------------------------------| 
B-|---------------------------------------------*| 
G-|----------------------------------------------| x2 
D-|---------------------------2-0----------------| 
A-|------0-2~---2-2-2-2-2-2-2-----4---0-4-0-----*| 
D-|--2-4----------------------------2------------| 

2:55 - 3:25 
Bridge Solo (two guitars simultaneously) 
e-|--------------------------------10------10------12------11------------------------------------| 
B-|--7------10------10------12-----------------------------12------8-----\7------3--5~-----------| 
G-|-------------------------9------11------12------13--------------------------------------------| 
D-|--9------11------12---------------------------------------------9-----\7------7--6~-----------| 
A-|----------------------------------------------------------------------------------------------| 
D-|----------------------------------------------------------------------------------------------| 
                              
e-|---------------------------------------------------------------| 
B-|--7-----\5------5--4~------------------------------------------| 
G-|--7-----\6------2--4~--------------------9-7-6------6----------| 
D-|---------------------------------9-7-6-----------7-----7~------| 
A-|-------------------------7-5-4-0-------7-------7---------------| 
D-|---------------------------------------------------------------| 

3:25 - 3:40 
Modified Intro/Outro 
     ^        ^        ^     ^     ^   ^   ^        ^        ^     ^   ^   ^    
e-|-----------------------------------------------------------------------------------| 
B-|--12-12-12-10-10-10-9-9-9-9-9-9-9-9-9-9-12-12-12-10-10-10-9-9-9-9-9-9-9-9-9--------| 
G-|--11-11-11-9--9--9--9-9-9-9-9-9-9-9-9-9-11-11-11-9--9--9--9-9-9-9-9-9-9-9-9--------| 
D-|-----------------------------------------------------------------------------------| 
A-|-----------------------------------------------------------------------------------| 
D-|-----------------------------------------------------------------------------------| 
  
e-|-------9---------------------------------------------------------------------------| 
B-|--12-----10---12-9----------------------------10----9----------------7-10----------| 
G-|--11-----9-------9-----9--11-12-11-9----11-----------------------7-9---------------| 
D-|-------------------------------------12-11----------9--------7-9----------9~-------| 
A-|----------------------------------------------12-----------------------------------| 
D-|-----------------------------------------------------------------------------------| 

Chorus x2 (3:40 - 4:10)  
		  

Full key step upFull key step up
Half key step upHalf key step up
Half key step downHalf key step down
Full key step downFull key step down
hide glossary

See also:

tabs Daft Punk - Tron Legacy - End Titles (intro) tabs Shaka Ponk - Wataman tabs Daft Punk - Disc Wars tabs Daft Punk - Aerodynamics tabs Shaka Ponk - Slam And Slamed tabs Daft Punk - Random Access Memories
e-chords

Other versions:

tabs Justice - New Lands
auto scroll beats size up size down change color hide chords drawings
tab show chords e-chords YouTube Clip e-chords hide all tabs e-chords go to top tab

share