Juanes

home > Juanes

Para tu Amor Tab

Juanes

Difficulty: ExpertExpert

by europeu

tuner correct add songbook print version text version save to e-mail
chordsukulelecavacokeyboardtabbassdrumsharmonicsflute Guitar Pro
chords

Para tu Amor

Year: 2004 - Album: Mi Sangre

  		Intro 
-------------------1---------------------------| 
-------------------1---------------------4-----| 
-----5-5-5-----3-2---2-----5-5---5-5-4-3---3---| 
-----8-6-6---6-1-1-----1---6-6---6-6-4-5-----5-| 
-----6-6---6---3-3-----------4-----6-6-6-------| 
-4-------------1-1-------6-----6---------------| 
 
Verso 
 
Para tu amooor lo tengo todo... 
 
-------------------1---------------------------| 
-------------------1---------------------4-----| 
-----5-5-5-----3-2---2-----5-5---5-5-4-3---3---| 
-----8-6-6---6-1-1-----1---6-6---6-6-4-5-----5-| 
-----6-6---6---3-3-----------4-----6-6-6-------| 
-4-------------1-1-------6-----6---------------| 
 
Para tu amor que es mi tesoro... 
 
-------------------1----------------------------| 
-------------------1------2-4-4-----4-------6---| 
-----5-5-5-----3-2---2----1-5-3-----3-------6---| 
-----8-6-6---6-1-1-----1--3-6-5---5---5---6---6-| 
-----6-6---6---3-3--------1-----6-------8-------| 
-4-------------1-1----------4-3-----------------| 
 
un corazonnn que se muere x dar amor... 
 
-------4-------------3---------------------------| 
-----6-6-------8--6-----2--------2---------------| 
---x-5---5-----8----------1----1-----x-5-5-6-6-5-| 
---x-6-----6---8-----5--3------------x-6-6-6-6-6-| 
-4-x-4-------6----8------------------x-6-6-6-6-6-| 
-----------------------------1-----4-x-4---4---4-| 
 
Un corazon que late por vos... 
 
-------4-------------------------------| 
-----6-6--------8---------9--------11--| 
---x-5---5------8-------6--------8-----| 
---x-6-----6--8---8---6--------8-------| 
-4-x-4-------6------8-------10---------| 
---------------------------------------| 
 
Coro 
 
Por eso yo te quiero... 
 
---------------------------------------------| 
---------4----------4-----------4----4-----4-| 
---5--5--5------5-5-5-----6-5-3-3----3-----3-| 
---8--6----6--- 8-6---6---8-6-5-5--5-----5---| 
---6--6------6--6-6-----6-8-6-6-6-6----6-----| 
-4----4---------4-4-------6-4-3--------------| 
 
Ahi se repite eso pero al final cambia con este arpegio 
 
--------------------| 
-----6----------11--| 
-----6--------8-----| 
---6---6----8-------| 
-8-------10---------| 
--------------------| 
 

	  

Search Paypal
auto scroll beats size up size down change color hide chords drawings
tab show chords e-chords YouTube Clip e-chords hide all tabs e-chords go to top tab