Juanes

home > Juanes

Para ser eterno Tab

Juanes

Difficulty: nolevelnolevel

by europeu

tuner correct add songbook print version text version save to e-mail
chordsukulelecavacokeyboardtabbassdrumsharmonicsflute Guitar Pro
chords

Para ser eterno

Year: 2000 - Album: Fijate Bien

  		/INTRO/ 
  
e-----------------------------------x---x---x--------------------------/ 
b------------2-----3---------2------5---3---2-------2------------------/ 
g-------4---4-4----4--4-------2-2---4---2---1-1---1-----1/2--4--6--2---/ 
d---4--4---4---4---0--0-----4--4-----6---4--3---3--------------------4-/ 
a-2--0-------------2--x----4--------x---x---x--------------------------/ 
E--------4------------4--2----------4---2---1-----------1/2--4--5--2---/  
 
 
*************** 
Primera estrofa: 
*************** 
 
e-^^--------.-.---.--.---^^-------.-.---.--.-:/ 
b-23-2~--.--3-2---3--2---23-2~-.--3-2---3--2-:/ 
g--------1.-----.--------------2.-----.------:/ 
d---------3-----3---------------4-----4------:/ 
a--------------------------------------------:/ 
E--------------------------------------------:/ 
 

	  

Search Paypal
auto scroll beats size up size down change color hide chords drawings
tab show chords e-chords YouTube Clip e-chords hide all tabs e-chords go to top tab