Juanes

home > Juanes

A Dios Le Pido Tab

Juanes

Difficulty: IntermediateIntermediate

tuner correct add songbook print version text version save to e-mail
chordsukulelecavacokeyboardtabbassdrumsharmonicsflute Guitar Pro
chords

A Dios Le Pido

Year: 2002 - Album: Un Dia Normal

  		Tabbed by:El Bueno 
Standard Tuning 
 
1-5--5-5--8-8-8--5-5-5--5-5-------------------------------- 
2-5--5-5--5-5-5--5-5-5--5-5-------3-3------3-3-----3-3----- 
3-------------------------------4--------4-------4-------- 
4----------------------------6---------6-------6-------6-7- 
5---------------------------------------------------------- 
6---------------------------------------------------------- 
 
1-5--5-5--8-8-8--5-5-5---5-5------------------------------- 
2-5--5-5--5-5-5--5-5-5---5-5-------3-3-----3-3-----3-3----- 
3--------------------------------4-------4-------4--------- 
4-----------------------------6--------6-------6-------6-7- 
5---------------------------------------------------------- 
6---------------------------------------------------------- 
 
1---------------------------------------------------------- 
2-------5-----5---------5----5--------------3-3-----3-3---- 
3-----5-----5-----5---5---5-----7--4------4-------4-------- 
4--7---------------7-----------------6--6-------6-------6-7 
5---------------------------------------------------------- 
6---------------------------------------------------------- 
 
1------------5-----5---5-4----------7-10-8-7----8-7--------- 
2------5---5---5-----5-----5------9----------10------10-9-10 
3----5---5-------5--------------9--------------------------- 
4--7-------------------------------------------------------- 
5----------------------------------------------------------- 
6----------------------------------------------------------- 
 

	  

Search Paypal
auto scroll beats size up size down change color hide chords drawings
tab show chords e-chords YouTube Clip e-chords hide all tabs e-chords go to top tab