John Frusciante

Fallout Tab

John Frusciante

Difficulty: ExpertExpert

tuner correct add songbook print version text version save to e-mail
chordsukulelecavacokeyboardtabbassdrumsharmonicsflute Guitar Pro
close

there isn't a video lesson for this song

chords

Fallout

  		Version 1 :

/  - slide into or out of (from/to "nowhere")

(E A D G B E)
 4/4
  
 main riff
|-----------------8-10----|
|-----5-6-----------------|
|--------------10---------|
|---7-----5/8-------------|
|-5-----------------------|
|-------------------------|


 Transition
|-----6---------------------------------------------------------|
|-------8------10--------5-------3-------1-------5-------3------|
|---7-------------10-------5-------3-------2-------5-------3----|
|-5---------10---------5-------3-------3-------5----------------|
|---------8----------3-------1---------------3---------5--------|
|------------------------------------1---------------3----------|


 
|------------------------------------|
|-----5-------1-------5-------3------|
|-------5-------2-------5-------3----|
|---5-------3-------5-------5--------|
|-1---------------3------------------|
|---------1---------------3----------|


 riff 2
|-----5------1---------3-3-3-3--3----|
|-----6------1------5--3-3-3-3--3----|
|-----7------2------5--3-3-3-3--3----|
|-----7------3------5--5-5-5-5--5----|
|-5-5-5------3--3-3-3--5-5-5-5--5----|
|--------1-1-1---------3-3-3-3--3----|


Version 2 :


Transcribed by: Itay Auerbach
Email: [email protected]


Riff A

-------------8-10-------------------------------------------------------------
-----5-6---6------------------------------------------------------------------
-7----------------------------------------------------------------------------
---7-----8--------------------------------------------------------------------
------------------------------------------------------------------------------
------------------------------------------------------------------------------


                                                                              
Riff B

-------6---------5----------0-------------------------------------------------
-----8---------6----------1---------------------------------------------------
---7---------5----------0--------------4--------------------------------------
-5---------3-------------------------5----------------------------------------
----------------------3------------5------------------------------------------
---------------------------------3--------------------------------------------


                                                                              
Riff C

-----6----------5----------0--------------------------------------------------
-----8----------6----------1--------------------------------------------------
---7---7------5---5------0---0--------0---------------------------------------
-5----------3-----------------------0-0-0-------------------------------------
-----------------------3------------------------------------------------------
----------------------------------3-------------------------------------------
	  

auto scroll beats size up size down change color hide chords drawings
tab show chords e-chords YouTube Clip e-chords hide all tabs e-chords go to top tab

share with facebook

Search Paypal