john barry

James Bond Theme

john barry

tabs Expert expert

by  FUSTAMBUJ

save to print version add songbook text version e-mail correct tuner
chordsukulelecavacokeyboardtabbassdrumsharmonicaflute Guitar Pro
close

there isn't a video lesson for this song

chords

James Bond Theme

	  		Intro: 

1|---------------------------------| 
2|---------------------------------| 
3|---------------------------------| 
4|---------------------------------| 
5|-2---3---4---3---2---3---4---3---| 
6|---0---0---0---0---0---0---0---0-| 

   Chorus: 

1|-------------------------------------------------------------------------------------| 
2|-------------------------------------------------------------------------------------| 
3|-------------------------------------------------------------------------------------| 
4|-------------------------------------------------------------------------------------| 
5|-------------------------------------------------------------------------------------| 
6|-0-2222--0-0-0-0-3333--2-2-2-0-2222--0-0-0-0-3333--2-2-2-0-2222--0-0-0-0-3333--2-1-0-| 

   Verse 1: 

1|-------------------------------------------| 
2|-------------------------------------------| 
3|-------------------------------------------| 
4|-20----------------------------------------| 
5|-------202-----3---4---3---2---3---4---3---| 
6|-------------0---0---0---0---0---0---0---0-| 

  (Chorus) 

   Verse 2: 

1|------------------------| 
2|------------------------| 
3|------------------------| 
4|-20-----------5754-03-0-| 
5|-------202--------------| 
6|------------------------| 

		  

See also:

tabs Black Eyed Peas - Pump it (solo) tabs Maroon 5 - She will be loved (intro) tabs Michael Jackson - Billie Jean ( ver. 2 ) tabs Gavin Degraw - Follow Through tabs Yellowcard - Only One tabs Black Eyed Peas - Pump it intro
e-chords

Other versions:

tabs Soundtracks - James Bond - Theme tabs Dick dale - James Bond Theme tabs James Bond - James Bond Theme tabs john barry - James Bond Theme tabs James Bond - James Bond Theme (ver. 2) tabs James Bond - James bond theme true
auto scroll beats size up size down change color hide chords drawings
tab show chords e-chords YouTube Clip e-chords hide all tabs e-chords go to top tab

share