Joe Pass

Blue Moon

Joe Pass

tabs Easy easy

by  CARLLUZ

save to print version add songbook text version e-mail correct tuner
chordsukulelecavacokeyboardtabbassdrumsharmonicaflute Guitar Pro
close

there isn't a video lesson for this song

chords

Blue Moon

	  		

|-------------------------------6------6------6---3--3--------------| 
|----------7------6------5------7------6------4---5------------6----| 
|---7------6------5------4------7------6------4---4--------5---5----| 
|---6------4------4------3------6------5----0-3---3----5---5--------| 
|---7----0---0--5---5----------------0---0-------------------4-5----| 
|-0---0----------------3---3--0---0-------------4-3----3-4-5--------| 

|-3-5---3----3------------------------------------------6-----------| 
|-------5----------------5--6----5-6-5-5-3-0--5-5-------5---5---5---| 
|-------4------------6---4--5--7-----4--------7-----7---6---5-7---5-| 
|-------3------------5---3-----------3--------6-----6---5-----------| 
|----------------------4----5--------4----------------0---4-5-------| 
|-----3----1---0-6-5--------------------------6---6-----------------| 

|----------------------------------------6-6------------------------| 
|--------8/6p5----------------------9-8--8-8--------4---4--1-x--9h10| 
|-----5--------7p5------------------8-7--7-7--------3---3--1-x--8---| 
|-7-5-6------------6p5--------------7-6--6-8--------2---2--1----10--| 
|----------------------8p7-5------------------5-4p3-------------8---| 
|----------------------------8-7-6--------------------2----1--------| 

|-8-6-x-4-6-6------------1-3-4-6------3-----3-------1-3-------------| 
|---8-x-6-4--------4---4-----4---8-6--------2-----4---4-4-----4-----| 
|---7-x-5-4--------3---3-----5---7----4-----3---3-1---2-1---4-5-----| 
|---6-x---3--------2---------3---6----3-----2---2-1---------6-5-----| 
|-------------4--3----------------------4-3-----------2-1-----6-----| 
|-------4-3-----------2--1-----------3--------2---1-----------------| 

|-----3-4-6-------------------------------------------8-5-----------| 
|---4-------7h8-----------------------3-3-3---5-5--1--6-5-----------| 
|-3-------------8-------------------5-5-----4-4----2--6-5----5-x-5--| 
|-----------------8-6---4h5-----------4-------3----2--5-5----7-x-4--| 
|---------------------6-------5-6------------------3-------6---x----| 
|---------------------------6---------4-------3----------------x-4--| 

|--------------------------------------------------7-------7-3------| 
|-3-5--1-------------------------------------4----------5--5-5------| 
|-4-4--2-----5-7/9-5-----5--5-5-7---7--------3-----6----5--5-4------| 
|-3-3--2-5-7---------7-5------------6--5-----------5-------4-3------| 
|--------------------------------------6-5-3----------6-5-----------| 
|-3-3--3--------------------------6------------6-5------------------| 

|-4-5-6--6-6------------------------8-6-4-------6-------------------| 
|-6-7-8--8-8--------4---4-1----9h11---8-6---6/8-------4-4---1-------| 
|-5-6-7--7-7--------3---3-1----8------7-5---5-----0---4-3---1-------| 
|--------6----------2---2-1----10-----6-4-5-----------3-2-0-1-------| 
|----------6--5-4p3------------8------------6-----------------------| 
|-4-5-6---------------2---1--x----------------------4-3-2---1-------| 

|------------------------8------------------------------------------| 
|-6-8-9--8--6--------------7-8-------------------------------3-4-6-8| 
|-5------5--5------------------8-5-----------------------3-5-------5| 
|-6------6--6--5-------------------6---4h5-------3---3h5------------| 
|--------------6-5-4-3---------------3-------3-5---6---------------5| 
|------------------------------------------3------------------------| 

|-------3--3---------------5---7---5---3-----5---------------3------| 
|----------3---------5-6-8-6-----------3-----8---8-6-----3h5--------| 
|---5-4----4-----6---4-5-5-----5---4---4-----6---5---5---4----------| 
|---4-3----------5-----7-7---0-4-0-3-0-----------------7-3----------| 
|--------4-3-------4---5-5-------------3-------6-5------------------| 
|-0-4-3------6-5-------------------------6-5-------------3----------| 

|------------------------------------------------5-7-10-8p7---------| 
|-6-5---5---6-----3-----------5-1------------5-8------------10p8----| 
|-----------6-----5---5-3h4-----2----7-5/4-5------------------------| 
|---7---6---5-----4---4-3---3-3-2--5--------------------------------| 
|-------------------------------------------------------------------| 
|-----6---5---5-4---4---3-------3-----------------------------------| 

|-----------------------------------5-------5-8-12-15-7-------------| 
|---6---5---4---3-------8-----8-----8---5---6-6-------8-10----------| 
|-9---7---6---5---4-----------------6---4-5-5-5-------8-7-----------| 
|-------------------6-5-------------------7-7-7---------10----------| 
|-------------------------8-7---------4---5-----11----8-7-----------| 
|-------------------------------6-5----------------15---------------| 

|------------------------------------------------8------------------| 
|---------5-6-----5-6-5----3---5-8-5-----8-5---8-6h7-6--------------| 
|-----6---4-----7----------4-------5---6---6---5-------8-5----------| 
|-----5-----7-7------------3---6---6---5---5---------------8-5------| 
|-------4---5--------------------------------6-5--------------------| 
|-6-5--------------------3---6-------5-----5------------------------| 

|--------------------------------------------------------8-6-3------| 
|-------------------------------------3-3--5-5-----------8-6-4-4-1--| 
|-----------------------------------5-5----4----7-5-7-5----5-4---2--| 
|-4-3------------------------0--------4----3----6---5----7-----3-2--| 
|-----6-3-3----3---3---3---3---2-3-----------------------------2-3--| 
|------------0---1---2---3------------3----3----6---5------4-3------| 

|-------------------------------------------------------------------| 
|----------------------------------6h8p6---5h7p5---4-----3-4-6------| 
|---------5---5-4--5-4-7-7---7-----------7-------6---3-5------------| 
|-------------6-5--6-5-6-9-5h6-x-8----------------------------------| 
|------------------------------x-6----------------------------------| 
|-5-6-7-8---7-6-5--6-5----------------------------------------------| 

|-----------------3-7-5-6---8---4--4--6-6--1--1--1-3--3-------------| 
|-3---3---5---3---5-6-7-8---6---6--6--4-4--3--3--3-4--2-------------| 
|-5---5---5---5---4-5-6-7---6---5--5--4-4--2--2--2-2--2--5--5-4-----| 
|-5---5---5-4-----3-4-5-6---5---4--4--3-3--1--1--1-------6--6-5-----| 
|---0---0------------------------------------------2--2-------------| 
|---------------4-3-4-5-6---5---4--4--3-3--1--1--1-------6--6-5-----| 

|------------------------------5-7-5---5-----10-----------------5---| 
|-10-10----------------------8-------8-------8------10---5-7-8--7-5-| 
|-------------12-----7-----------------7-----9------7-----------6---| 
|----------11--------7----------------------------x-------------5---| 
|-------12---------9-------7-----------5--------8---7---------------| 
|----10----------7-----2-0---------5-----8-7-----------0--------5---| 

|-----------------------------------3------------5-6--9-12----9------| 
|---7-------------------5-7----3----3----3-5-7-8---7-------11------11| 
|---------7-5-----5-4-7-------4----3----2----------6------------12---| 
|-------8-------7------------5----5----5-----------------------------| 
|-----7-------6-------------0----0----0------------------------------| 
|-8---------7--------------------------------------------------------| 

|------------------------------------------------3-------3--3-------| 
|---8----------------------------------3---------------5----------3-| 
|-9------9---6-----------------------3---3-----------4----------4---| 
|-----11---8---5-8---5-------------4-------4-------3----------5-----| 
|------------------7---4-7-------3-------------------------3--------| 
|--------------------------6-5-4-------------4-3--------------------| 

|------------------5---3---------------5----------------------------| 
|-------------6h8----------6---8-5-----8---6---5-6----5-------5-----| 
|--------------------------------4-----6---5-7-------4--7----5------| 
|-----------7--------------------5---5--------------3-------6-------| 
|------0--5------------------------------6-5---------------5--------| 
|-1-0----------------3---7---8-----5---------------3------6---------| 

|---------------5-6-8p6p5---------------------------------6-----5---| 
|---------5h6h8-----------6-----------------5------1----8-----7-----| 
|-----5-7-------------------6-----------5-7----5-5------7-----6-----| 
|-6-8-------------------------7-------7--------4-3-2----6-----5-----| 
|-------------------------------8---5--------------3----------------| 
|---------------------------------5-----------4--3----0-----5-------| 

|---4-----3--6-6--5-5--4-4-3--3-12----------------------------------| 
|-------5----8-8--7-7---------5-13----------------------------------| 
|-5-----4----7-7--6-6--5-5-4--4-12-------------3--------------------| 
|-4---0-3----6-6--5-5--4-4-3--3-10-------------2--------------------| 
|-------------------------------------3-3--3-x-3--------------------| 
|-4-----3---------5----4-4-3--------3-------------------------------| 
		  

See also:

tabs Milow - Ayo Technology tabs Pat Metheny - It's (just talk) tabs Fiona Apple - Shadowboxer tabs Norah Jones - In the morning tabs Klezroym - Yankele Nel Ghetto tabs Norah Jones - Don't Know Why
e-chords

Other versions:

tabs Orange and Lemons - Blue moon tabs Joe Pass - Blue Moon tabs Moby - Blue Moon (acoustic) tabs John Fogerty - Blue moon nights tabs Brian Setzer - Blue Moon Of Kentucky
auto scroll beats size up size down change color hide chords drawings
tab show chords e-chords YouTube Clip e-chords hide all tabs e-chords go to top tab

share