Jason Mraz

home > Jason Mraz

Unfold (live) Tab

Jason Mraz

Difficulty: ExpertExpert

tuner correct add songbook print version text version save to e-mail
chordsukulelecavacokeyboardtabbassdrumsharmonicsflute Guitar Pro
chords

Unfold (live)

  		Tabbed by:bbt 
Email:anonymous 

Tuning:Drop D Tuning,(Listen to the song to figure out the rythm) 
All tabs are relative to capo 

INTRO 
e|--------------------------------------------------------------------------- 
B|--------------------------------------------------------------------------- 
G|--------7------7------9------------7-----5--------------------------------- 
D|--------7------7------7----12------7-----5--------------------------------- 
A|--5h7--s9----2s5------7----12------7-----5--------------------------------- 
D|--------0------0------4-----9------7-----5--------------------------------- 
   
  Hands in line, arms close, to my side im fighting tides, of an oceans  
e|--------------------------------------------------------------------------- 
B|--------------------------------------------------------------------------- 
G|----7--------------------9------------------------------------------------- 
D|----7-(2x)---------------7----------------------------12------------------- 
A|--0-5--------------------7----------------------------12------------------- 
D|-------------------------4-----------------------------9------------------- 
  
  undertow, and I figure that I might not make it out and im taking empty 
e|--------------------------------------------------------------------------- 
B|--------------------------------------------------------------------------- 
G|-------7--------------------------5----------------7-------------------7--- 
D|-------7--------------------------5----------------7-------------------7--- 
A|-------7--------------------------5---------------s9-----------------2s5--- 
D|-------7--------------------------5----------------0-------------------0--- 
   
  but seldom, speaking, and the words repeat. Well they breath and history's 
e|--------------------------------------------------------------------------- 
B|--------------------------------------------------------------------------- 
G|-----------9--------------------------------------------------------------- 
D|-----------7-----------------------------12-------------------------------- 
A|-----------7-----------------------------12-------------------------------- 
D|-----------4------------------------------9-------------------------------- 
   
  still at ease, with the stories untold and my arms unfold. 
e|--------------------------------------------------------------------------- 
B|--------------------------------------------------------------------------- 
G|------------7--------------------------5--------------------7----7--------- 
D|------------7--------------------------5--------------------7----7-(2x)---- 
A|------------7--------------------------5-------------------s9--2s5--------- 
D|------------7--------------------------5--------------------0----0--------- 
   
  My hands are high, and im holdin on, im holdin on. And I figure that I.well 
e|--------------------------------------------------------------------------- 
B|--------------------------------------------------------------------------- 
G|-----------------9----------------------------------------------------7---- 
D|-----------------7-----------------12---------------------------------7---- 
A|-----------------7-----------------12---------------------------------7---- 
D|-----------------4------------------9---------------------------------7---- 
   
  I figure that I. Just might make it and im waking empty,but seldom sleeping 
e|--------------------------------------------------------------------------- 
B|--------------------------------------------------------------------------- 
G|---------------5------------------------7----------7--------------9-------- 
D|---------------5------------------------7----------7--------------7-------- 
A|---------------5-----------------------s9--------2s5--------------7-------- 
D|---------------5------------------------0----------0--------------4-------- 
   
  And the words repeat, breathin histories into stories untold. 
e|--------------------------------------------------------------------------- 
B|--------------------------------------------------------------------------- 
G|------------------------------------------------------------7-------------- 
D|------------------12----------------------------------------7-------------- 
A|------------------12----------------------------------------7-------------- 
D|-------------------9----------------------------------------7-------------- 
   
  And I, I unfold.                  Quality is what you see now in the  
e|--------------------------------------------------------------------------- 
B|--------------------------------------------------------------------------- 
G|----5--------------7----7-------------------------------------------------- 
D|----5--------------7----7----7----12--------------------------------------- 
A|----5-------------s9--2s5----7----12--------------------------------------- 
D|----5--------------0----0----4-----9--------------------------------------- 
   
  corner of your eye. Dont be suprised if you hear the bells ring as they 
e|--------------------------------------------------------------------------- 
B|--------------------------------------------------------------------------- 
G|--------------------------------------------------------------------------- 
D|-----------------7--12----------------------------------------------------- 
A|-----------------7--12----------------------------------------------------- 
D|-----------------4---9----------------------------------------------------- 
   
  fall from out of the sky. They sound bong bong bong bong bong ba dum dum. 
e|--------------------------------------------------------------------------- 
B|--------------------------------------------------------------------------- 
G|--------------------------------------------------------------------------- 
D|----7-------------------------------12--------------------------7---------- 
A|----7-------------------------------12--------------------------7---------- 
D|----4--------------------------------9--------------------------4---------- 
   
  They sound bong bong bong bong ba dum dum. 
e|--------------------------------------------------------------------------- 
B|--------------------------------------------------------------------------- 
G|--------------------------------------------------------------------------- 
D|---------12---------------------------------------------------------------- 
A|---------12---------------------------------------------------------------- 
D|----------9---------------------------------------------------------------- 
   
  in the live version he freestyles and transitions between these 2 chords 
e|--------------------------------------------------------------------------- 
B|--------------------------------------------------------------------------- 
G|--------------------------------------------------------------------------- 
D|--7--12--7--12---7--12---------------------------------------------------- 
A|--7--12--7--12---7--12--(Do this however long you want until the next line) 
D|--4---9--4---9---4---9---------------------------------------------------- 
  
  And im holdin up this time cause I figured that I, well i figured that I,  
e|--------------------------------------------------------------------------- 
B|--------------------------------------------------------------------------- 
G|------------------------------------------------7----------------------5--- 
D|-12---------------------------------------------7----------------------5--- 
A|-12---------------------------------------------7----------------------5--- 
D|--9---------------------------------------------7----------------------5--- 
   
  Just might make it and im waking empty but seldom sleepy 
e|--------------------------------------------------------------------------- 
B|--------------------------------------------------------------------------- 
G|------------------------7-----------7------------9------------------------- 
D|------------------------7-----------7------------7------------------------- 
A|-----------------------s9---------2s5------------7------------------------- 
D|------------------------0-----------0------------4------------------------- 
  
 and the words repeat, breathin histories into stories untold and I,I unfold. 
e|--------------------------------------------------------------------------- 
B|--------------------------------------------------------------------------- 
G|-----------------------------------------------------------7-----5--------- 
D|------------------12---------------------------------------7-----5--------- 
A|------------------12---------------------------------------7-----5--------- 
D|-------------------9---------------------------------------7-----5--------- 




e|--------------------------------------------------------------------------- 
B|--------------------------------------------------------------------------- 
G|---7----7------------------------------------------------------------------ 
D|---7----7--(2x)------------------------------------------------------------ 
A|--s9--2s5------------------------------------------------------------------ 
D|---0----0------------------------------------------------------------------ 


 All S's = slide up 
                                            9 
                                            7               7 
 If you cant stretch your fingers to reach  7 Then just use 7 Its alot easier 
                                            4               4  

 Hope you guys enjoy.....
	  

Full key step upFull key step up
Half key step upHalf key step up
Half key step downHalf key step down
Full key step downFull key step down
Search Paypal
auto scroll beats size up size down change color hide chords drawings
tab show chords e-chords YouTube Clip e-chords hide all tabs e-chords go to top tab