Jason Mraz

home > Jason Mraz

No Doubling Back Tab

Jason Mraz

Difficulty: nolevelnolevel

tuner correct add songbook print version text version save to e-mail
chordsukulelecavacokeyboardtabbassdrumsharmonicsflute Guitar Pro
chords

No Doubling Back

  		By:Jason Mraz 
Tabbed By: Jon Micetic 
 
Normal Tuning 
 
Verse 
e------------------------- 
B-2-0-2-0-2---2-0-2-0-2--- 
G-2-2-2-2-2---2-2-2-2-2--- 
D-2-2-2-2-2--------------- 
A------------------------- 
E------------------------- 
 
Chorus 
e---------------- 
B-----------2-2-- 
G---2---2---2-2-- 
D---2---2---2-2-- 
A---------0---0-- 
E-2---4---------- 
 
Last measure of chorus 
e---------2-2-2-2- 
B---------3-3-3-3- 
G---2---2-2-2-2-2- 
D---2---2--------- 
A----------------- 
E-2---4----------- 
 
 
Bridge 
e-------------------------------------------- 
B-----------------------------------------2-- 
G-4-x-4-4-4-x-4-4-2-x-2-2-2-x-2-2-2-x-2-2-2-- 
D-4-x-4-4-2-x-2-2-2-x-2-2-2-x-2-2-2-x-2-2-2-- 
A---------4-x-4-4---------------------------- 
E-4-x-4-4---------2-x-2-2-2-x-2-2-4-x-4-4---- 
 

	  

Search Paypal
auto scroll beats size up size down change color hide chords drawings
tab show chords e-chords YouTube Clip e-chords hide all tabs e-chords go to top tab