Jason Mraz

home > Jason Mraz

Make It Mine Tab

Jason Mraz

Difficulty: nolevelnolevel

by PAULLET3

tuner correct add songbook print version text version save to e-mail
chordsukulelecavacokeyboardtabbassdrumsharmonicsflute Guitar Pro
chords

Make It Mine

  		---------- 
Intro 
---------- 

e|--3--| 
B|--5--| 
G|--4--| 
D|--5--| 
A|--3--| 
E|-----| 


---------- 
Verse 
---------- 

"Wake up everyone..." 

e|--2--|--x--|--3--| 
B|--3--|--5--|--5--| 
G|--4--|--5--|--4--| 
D|--4--|--5--|--5--| 
A|--2--|--x--|--3--| x2 
E|-----|--5--|-----| 


---------- 
Chorus 
---------- 

"I don't wanna wake..." 

Between each chord he mutes each string while strumming, to keep 
the rhythm going... 

e|--x----x--5----5--x----x--7----7-----| 
B|--5----5--7----7--7----7--8----8--7--| 
G|--5----5--7----7--7----7--7----7--7--| 
D|--5----5--7----7--7----7--9----9--7--| 
A|--x----x--5----5--x----x--7----7--7--| x2 
E|--5----5----------7----7-------------| 

This is where he strums the first two chords, then lets the last 
chord ring on... 

e|--x--|--5--|--3--| 
B|--5--|--7--|--5--| 
G|--5--|--7--|--4--| 
D|--5--|--7--|--5--| 
A|--x--|--5--|--3--| 
E|--5--|-----|-----| 


---------- 
Pre Verse 
---------- 

e|--3--| 
B|--5--| 
G|--4--| 
D|--5--| 
A|--3--| 
E|-----| 


---------- 
verse 2 
---------- 

"I keep my life on a heavy rotation..." 

e|--2--|--x--|--3--|--5--|--3--|--2--| 
B|--3--|--5--|--5--|--7--|--5--|--3--| 
G|--4--|--5--|--4--|--7--|--4--|--4--| 
D|--4--|--5--|--5--|--7--|--5--|--4--| 
A|--2--|--x--|--3--|--5--|--3--|--2--| 
E|-----|--5--|-----|-----|-----|-----| 

This is the "La, la, la, la, love it" bit, with the second chord 
being the little build up... 

e|--x--|--5--| 
B|--5--|--7--| 
G|--5--|--7--| 
D|--5--|--7--| 
A|--x--|--5--| 
E|--5--|-----| 


---------- 
Chorus 
---------- 

"I don't wanna break..." 

Between each chord he mutes each string while strumming, to keep 
the rhythm going... 

e|--x----x--5----5--x----x--7----7-----| 
B|--5----5--7----7--7----7--8----8--7--| 
G|--5----5--7----7--7----7--7----7--7--| 
D|--5----5--7----7--7----7--9----9--7--| 
A|--x----x--5----5--x----x--7----7--7--| x2 
E|--5----5----------7----7-------------| 

This is where he strums the first two chords, then lets the last 
chord ring on... 

e|--x--|--5--|--3--| 
B|--5--|--7--|--5--| 
G|--5--|--7--|--4--| 
D|--5--|--7--|--5--| 
A|--x--|--5--|--3--| 
E|--5--|-----|-----| 

e|--7-----| 
B|--8--7--| 
G|--7--7--| 
D|--9--7--| 
A|--7--7--| 
E|--------| 


---------- 
Freestyle/Scatting 
---------- 

Between each chord he mutes each string while strumming, to keep 
the rhythm going... 

e|--x----x--5----5--x----x--7----7-----| 
B|--5----5--7----7--7----7--8----8--7--| 
G|--5----5--7----7--7----7--7----7--7--| 
D|--5----5--7----7--7----7--9----9--7--| 
A|--x----x--5----5--x----x--7----7--7--| x2 
E|--5----5----------7----7-------------| 

This is where he strums the first two chords, but this time the 
last chord doesn't ring on like it does in the Chorus, he carries 
on strumming... 

e|--x--|--5--|--3--| 
B|--5--|--7--|--5--| 
G|--5--|--7--|--4--| 
D|--5--|--7--|--5--| 
A|--x--|--5--|--3--| 
E|--5--|-----|-----| 


---------- 
Bridge 
---------- 

"And timing's everything..." 

e|--6--|--1--| 
B|--8--|--3--| 
G|--7--|--2--| 
D|--8--|--3--| 
A|--6--|--1--| x2 
E|-----|-----| 

"And reveling in energy..." 

e|--5--|--5--| 
B|--5--|--7--| 
G|--5--|--7--| 
D|--5--|--7--| 
A|--7--|--5--| 
E|--5--|-----| 


---------- 
Outro 
---------- 

"Well I dont wanna wait..." 

This is a bit different to the Chorus, as he doesn't mute his 
strumming pattern as much, it has a much more staccato feel to it... 

e|--x----x--5----5--x------------7-----| 
B|--5----5--7----7--7------------8--7--| 
G|--5----5--7----7--7------------7--7--| 
D|--5----5--7----7--7------------9--7--| 
A|--x----x--5----5--x------------7--7--| 
E|--5----5----------7------------------| 

This part is played like the Chorus... 

e|--x----x--5----5--x----x--7----7-----| 
B|--5----5--7----7--7----7--8----8--7--| 
G|--5----5--7----7--7----7--7----7--7--| 
D|--5----5--7----7--7----7--9----9--7--| 
A|--x----x--5----5--x----x--7----7--7--| x2 
E|--5----5----------7----7-------------| 

This last one here he strums, apart from the last chord*, where 
he mutes after playing... 
                            * 
e|--x----x--5----5--x----x--7----7-----| 
B|--5----5--7----7--7----7--8----8--7--| 
G|--5----5--7----7--7----7--7----7--7--| 
D|--5----5--7----7--7----7--9----9--7--| 
A|--x----x--5----5--x----x--7----7--7--| 
E|--5----5----------7----7-------------| 

e|--x--|--5--|--3--| 
B|--5--|--7--|--5--| 
G|--5--|--7--|--4--| 
D|--5--|--7--|--5--| 
A|--x--|--5--|--3--| 
E|--5--|-----|-----| 
	  

Search Paypal
auto scroll beats size up size down change color hide chords drawings
tab show chords e-chords YouTube Clip e-chords hide all tabs e-chords go to top tab