Jason Mraz

home > Jason Mraz

10000 Motherers Tab

Jason Mraz

Difficulty: BeginnerBeginner

tuner correct add songbook print version text version save to e-mail
chordsukulelecavacokeyboardtabbassdrumsharmonicsflute Guitar Pro
chords

10000 Motherers

  		By: Jason Mraz 
Tabbed by: Jon Micetic 
 
Normal Tuning 
Capo on 2 
 
Entire Song 
e------------------------------------ 
B-4-4-4-4-3-3-3-3-1-1-1-1-1-1-0-0---- 
G-5-5-5-5-0-0-0-0-1-1-1-1-0-0-0-0---- 
D--5-5-5-5-5-5-5-5-1-1-1-1-0-0-0-0--- 
A------------------------------------ 
E------------------------------------ 
 
 
e------------------------------------ 
B-4-4-4-4-3-3-3-3-1-1-1-1-1-1-0-0---- 
G-5-5-5-5-0-0-0-0-1-1-1-1-0-0-0-0---- 
D--5-5-5-5-5-5-5-5-1-1-1-1-0-0-0-0--- 
A------------------------------------ 
E------------------------------------ 
 

	  

Search Paypal
auto scroll beats size up size down change color hide chords drawings
tab show chords e-chords YouTube Clip e-chords hide all tabs e-chords go to top tab