Janes Addiction

Stop

Janes Addiction

tabs Intermediate intermediate

save to print version add songbook text version e-mail correct tuner
chordsukulelecavacokeyboardtabbassdrumsharmonicaflute Guitar Pro
close

there isn't a video lesson for this song

chords

Stop

Year: 1990 - Album: Ritual de lo Habitual

	  		Transcribed by: 
Email:  [email protected] 
 
 
 
 E-Mail me comments or anything, and PLEASE rate!! 
 
Intro(on the 2nd time, play the note in parenthesis) (9) 
e-|------------------------------|-------------------------------------|- 
B-|------------------------------|-------------------(9-9-9-9-9-9)-----|- 
G-|--7--x--7--x--7--x--7---6/7--x|-7--x--7--x--7--xx--8-8-8-8-8-8------|- 
D-|--6--x--6--x--6--x--6---5/6--x|-6--x--6--x--6--xx--7-7-7-7-7-7------|- 
A-|--7--x--7--x--7--x--7---6/7--x|-7--x--7--x--7--xx--8-8-8-8-8-8------|- 
E-|----------------------0-------|-------------------------------------|- 
 
 Chorus 
e-|------------------------------|-------------------------------------|- 
B-|------------------------------|-------------------------------------|- 
G-|-9--9-------------------------|-9-9---------------------------------|- 
D-|-9--9-----7-7-----------------|-9-9-----7-7--7--x-x-----------------|- 
A-|-7--7--9--5-4---7-9-----------|-7-7--9--5-5--4--x-x-----------------|- 
E-|-------7--------5-7-----------|------7------------------------------|- 
 
 
e-|------------------------------|--/16--16----------------------------|- 
B-|------------------------------|--/15--15-----14-14-14--12-(12)^-xx--|- 
G-|-9-9--------------------------|--/16--16-----14-14-14--12-(12)^-xx--|- 
D-|-9-9-----7-7----------2-------|-----------14------------------------|- 
A-|-7-7--9--5-4----7--9--2-------|-------------------------------------|- 
E-|------7---------5--7--0---/19-|-------------------------------------|- 
 
 
 Chorus Solo 
e-|-16-16--------------------------|-----------------------------------|- 
B-|-15-15--14p12--14-14-12 (12)^-xx|-----------------------------------|- 
G-|-16-16--14p12--14-14-12-(12)^-xx|-----------------------------------|- 
D-|--------------------------------|-----------------------------------|- 
A-|--------------------------------|-----------------------------------|- 
E-|--------------------------------|-----------------------------------|- 
 
 
e-|-16-16------------------------|-------------------------------------|- 
B-|-15-15--14p12h14p12h14-14^p12-|-14----------------------------------|- 
G-|-16-16--14p12h14p12h14-14^p12-|-14----------------------------------|- 
D-|------------------------------|-14--14------------------------------|- 
A-|------------------------------|-----0-------------------------------|- 
E-|------------------------------|-------------------------------------|- 
 
 
	Let Ring... 
     
e-|-------0-0-----0-----0--0--7--|--------0----0-0-------7------9------|- 
B-|-------0-0-----0-----0--0-----|--------0----0-0---------------------|- 
G-|-2^p0--------7^----7^----7^---|-2^p0--------------4/7----7/9--------|- 
D-|-----2------------------------|------2------------------------------|- 
A-|------------------------------|-------------------------------------|- 
E-|------------------------------|-------------------------------------|- 
 
 
 
  Verse  (Repeat several Times) 
 
         Palm Mute Notes played on the 6th E 
	 
e-|--------------------------------------------------------------------|- 
B-|--------------------------------------------------------------------|- 
G-|--------------------------------------------------------------------|- 
D-|--------2-----2--------------5-------------7------------------------|- 
A-|--------2-----2--------------5-------------7------------------------|- 
E-|-0-0-0-----0-----------3-3-----------5-5----------------------------|- 
   
 
 
   Verse Solo    
 
e-|---------0---0-0-----9--------|-----16----16---15--14--13--12-------|- 
B-|---------0---0-0--------------|-------------------------------------|- 
G-|--2^p0-----------2/9----------|-/16----16----15----14------13-------|- 
D-|-------2----------------------|-------------------------------------|- 
A-|------------------------------|-------------------------------------|- 
E-|------------------------------|-------------------------------------|- 
Repeat Verse (Not Verse Solo), then it changes a lil to this... 
  
  
 
(Palm Mute The 6th E for notes 3 and 5) 
 
	Repeat This a few times... Then its.. 
 
e-|------------------------------|-------------------------------------|- 
B-|---9--9--9/-------------------|-------------------------------------|- 
G-|---9--9--9/-------------------|-------------4------------------------|- 
D-|-2/9--9--9/--------5-------7--|-------------2------------------------|- 
A-|-2/7--7--7/--------5-------7--|-------------2------------------------|- 
E-|-0------------3-3-----5-5-----|-------------0------------------------|- 
 
 
 
 
   Repeat All of the above  again one time, then... 
 
 
 
Interlude 
e-|------------------------------|----------------------------------------|- 
B-|--3---------------3------4----|-3 3------------------------------------|- 
G-|--1------------1---------2----|-1-1------0h1---------------------------|- 
D-|--2----------2-----------3----|-2-2------------------------------------|- 
A-|--2---------------------------|---x------------------------------------|- 
E-|--0--0-0-0-0--------0-0-------|---0--0-0-------------------------------|- 
 
 
                  *W/Bar 1/2 
e-|----------------0--------------|--------------------------------------|- 
B-|----------------0----0---------|-----------3-------4------------------|- 
G-|----------------7----7---------|-------------------2------------------|- 
D-|-9--------------6----6---------|-------------------3------------------|- 
A-|-7--------------7----7---------|--------------------------------------|- 
E-|-0-0---0-0-0-0--0----0---------|-0-0-0-0-0---0--0---------------------|- 
 
 
 
e-|------------------------------|----------------------------------------|- 
B-|--3--------------3------------|------4/3--7----------------------------|- 
G-|--1-----------1---------------|------2/1--6-------------7--------7-----|- 
D-|--2---------2-----------------|------4/2--7-----------6----------6-----|- 
A-|------------------------------|---------------------7------------7-----|- 
E-|----0-0-0-0-------------------|0-0-0-----0--0-0-0-0-------0-0-0--------|- 
 
 
   \"One come a day when the waterwil run...\" 
 
 
e-|-------------------------------------------------------------------|- 
B-|-------------------------------------------------------------------|- 
G-|--9-9-9-9--9/11-11-11-11--11/12-12-12-12-12/14-14-14-14-14/12------|- 
D-|--x-x-x-x--x-x--x--x--x---x----------------------------------------|- 
A-|--7-7-7-7--7/9--9--9--9---9-/10-10-10-10-10-12-12-12-12-12/10------|- 
E-|0------------------------------------------------------------------|- 
 
 
                                                     x6 
e-|------------------------------|-0-------0----0----3---2---3-0-------|- 
B-|------------------------------|-0-------0----0----3-----3-----3-----|- 
G-|-11-9--7--7-9--9--7-6---------|-x-----------------0-----------------|- 
D-|-x--x--x--xxx--x--xxx---------|-2-----------------0--0--------------|- 
A-|-9--7--5--5/7--7--5/4--/14----|-------------------x-----------------|- 
E-|------------------------------|---0-0-0----0---0--3-----------------|-  
 
 
e-|--0---0--0----0-----0------3---|-------------------------------------|- 
B-|--0--------0-----0-----0---3---|-------------------------------------|- 
G-|---------------------------0---|-------------------------------------|- 
D-|---------------------------0---|-------------------9-9-9-9-9-9-9-----|- 
A-|---------------------------2---|-------------------7-7-7-7-7-7-7-----|- 
E-|0--------------------------3---|-0-0-0-0-0-0-0-0-0-0-0-0-0-0-0-0-----|- 
                                   PM................ 
 
 
e-|3------------------------------|-------------------------------------|- 
B-|3------------------------------|-------------------------------------|- 
G-|0------------------------------|-------------------------------------|- 
D-|0------------------------------|-------------------------------------|- 
A-|x------------------------------|-------------------------------------|- 
E-|3-3-3-3-3-3-3-3-3-3-3-3-3-3-3-3|--------------------------------------------------|- 
     PM........................... 
 
 
Repeat stuff like that  (you\'ll figure it out) 
 
 
 
 
 Solo 
e-|------------------------------|-------------------------------------|- 
B-|--9-x-9-----------------------|-------------------------------------|- 
G-|--9-x-9-----------------------|-------------------------------------|- 
D-|--9-x-9------7-7--------------|-------------------------------------|- 
A-|--7-x-7---9--5-4-7--9---------|-------------------------------------|- 
E-|----------7------5--7---------|-------------------------------------|- 
 
 
 W/Wah-wah     (and some parts with Whammy Bar)(mainly on the 15th frets) 
e-|--------------------------------------------------------------------|- 
B-|-15^---15^-15^----12h15---------15-15-15-15-15--15------------------|- 
G-|-14^-----------14---------------------------------------------------|- 
D-|--------------------------------------------------------------------|- 
A-|--------------------------------------------------------------------|- 
E-|--------------------------------------------------------------------|- 
 
 
e-|----------------------------------------------------15h17h20p17p15h17p15----------|- 
B-|-12h15p12-12-15p12----12h15-12h15p12h15p12---12/17-----------------------19-------|- 
G-|-------------------14-------------------------------------------------------------|- 
D-|----------------------------------------------------------------------------------|- 
A-|----------------------------------------------------------------------------------|- 
E-|----------------------------------------------------------------------------------|- 
 
 
e-|-15-17-19-17-15-17-15----15-17-19-17-15-17-15----15-17-19-17---------|- 
B-|----------------------19----------------------19---------------------|- 
G-|---------------------------------------------------------------------|- 
D-|---------------------------------------------------------------------|- 
A-|---------------------------------------------------------------------|- 
E-|---------------------------------------------------------------------|- 
 
 (this all with bar...) 
e-|------------------------------|15-17-15-----------------------------|- 
B-|--15---15---15----------------|---------19-19-17p15-17-15-17^-(17)--|- 
G-|------------------------------|-------------------------------------|- 
D-|------------------------------|-------------------------------------|- 
A-|------------------------------|-------------------------------------|- 
E-|------------------------------|-------------------------------------|- 
 
 
e-|-------------------------------------------------------------------|- 
B-|-17^-17^-17^--17^-(17)-17^-(17)-17^-(17)-----17^(17)-17^-(17)------|- 
G-|-----------------------------------------17^---------17^-----------|- 
D-|-------------------------------------------------------------------|- 
A-|-------------------------------------------------------------------|- 
E-|-------------------------------------------------------------------|- 
 
 
e-|------------------------------|-------------------------------------|- 
B-|-17^-(17)-17^(17)-17^-17^17^(17)-17^(17)-16^(16)-16-----------------|- 
G-|-17^----------------------------------------------------------------|- 
D-|------------------------------|-------------------------------------|- 
A-|------------------------------|-------------------------------------|- 
E-|------------------------------|-------------------------------------|- 
 
 
e-|-0------0---0---0------7------|--------0------9--9---8-9-9--10-11-12--12-14--|- 
B-|-0------0--0---0-------x------|--------0-------------x-x-x--x--x--x---x--x---|- 
G-|-2^p0-------------6/7--7------|-2^p0------2/9---9--8-8-9-9--10-11-12--13-14--|- 
D-|------2-----------------------|------2---------------------------------------|- 
A-|------------------------------|----------------------------------------------|- 
E-|------------------------------|----------------------------------------------|- 
 
 
e-|------------------------------|-------------------------------------|- 
B-|------------------------------|--------------------9-9--------------|- 
G-|------------------------------|-9-9----------------9-9--------------|- 
D-|-2-1--/4--/6--/12-------------|-9-9-----7--7-------9-9-----7-7-7-xx-|- 
A-|-2-2--/5--/7--/12-------------|-7-7-9---5--4-7-9---7-7-9---5-5-4-xx-|- 
E-|-0----------------------------|-----7--------5-7-------7------------|- 
 
 
e-|------------------------------|-------------------------------------|- 
B-|------------------------------|-------------------------------------|- 
G-|-9-9--------------------------|-------------------------------------|- 
D-|-9-9---7-7-------2--------2---|-------------------------------------|- 
A-|-7-7-9-5-4-7-9---2--------2---|-------------------------------------|- 
E-|-----7-----5-7---0-/17^---0---|-------------------------------------|- 
 

		  

Full key step upFull key step up
Half key step upHalf key step up
Half key step downHalf key step down
Full key step downFull key step down
hide glossary

See also:

tabs Ozzy Osbourne - Paranoid (live) tabs Ozzy Osbourne - Crazy Train tabs Black Sabbath - War pigs (simplificada) tabs Iron Maiden - Brave New Word tabs Iron Maiden - Children of the Damned tabs Iron Maiden - Dream Of Mirrors
e-chords

Other versions:

tabs Janes Addiction - Stop tabs Mike Bloomfield - Stop tabs Janes Addiction - Stop (ver. 2) tabs Evans Blue - Stop And Say You Love Me tabs Tokio Hotel - Stop Babe tabs Robert Johnson - Stop Breaking Down Blues
auto scroll beats size up size down change color hide chords drawings
tab show chords e-chords YouTube Clip e-chords hide all tabs e-chords go to top tab

share