Janes Addiction

Up The Beach

Janes Addiction

tabs

save to print version add songbook text version e-mail correct tuner
chordsukulelecavacokeyboardtabbassdrumsharmonicaflute Guitar Pro
close

there isn't a video lesson for this song

chords

Up The Beach

	  		
Transcribed by: 
Email: [email protected] 
 
 
 
Iam Pretty sure DAve uses a Delay, Chorus, and Wah Pedal For this song... 
Actaully, iam pretty sure he uses a wah on every part of this song, just slightly though,  
but i know he uses a delay(slight delay) and chorus. 
 
I can\'t get the whole entire thing,Its a lil hard to figure out,:p so this might not be very correct, buts its close 
please help me to finish tabbing this song, lol, its a great song!! 
 
                       % means let chord ring   
  
          Also, I listened to the Kettle Whistle version, so it might be a little 
          Different than the Nothing\'s Shocking version. 
 
 
 
     
    D                              D 
 
e-|-x-----------------------------|-x----x--x--x--x-------x--x--x--x----|- 
B-|-3-----------------------------|-3----3--3--3--3-------3--3--3--3----|- 
G-|-2--4/5-5/7--7/9--9/11--11/12--|-2----2--2--2--2-------2--2--2--2----|- 
D-|-0%----------------------------|-0%---0--0--0--0%------0--0--0--0%---|- 
A-|-------------------------------|-------------------------------------|- 
E-|-------------------------------|-------------------------------------|- 
 
     A                              Then i belieave its somehting like this?...(kind of slow) 
e-|-------------------------------|-------------------------------------|- 
B-|--x----------------------------|--7--5----7--5-----x-----------------|- 
G-|--6----------------------------|-------7--------7--6-----------------|- 
D-|--7----------------------------|-------------------7-----------------|- 
A-|--7%---------------------------|-------------------------------------|- 
E-|-------------------------------|-------------------------------------|- 
 
    D	Then he plays a lil solo thingy, I can\'t quite get right, butits mostly on the g 
         string around the 3-12th frets 
    x10 
e-|-x------------------------------|-------------------------------------|- 
B-|-2------------------------------|-------------------------------------|- 
G-|-3------------------------------|-------------------------------------|- 
D-|-0------------------------------|-------------------------------------|- 
A-|--------------------------------|-------------------------------------|- 
E-|--------------------------------|-------------------------------------|- 
 
   Repeat this 2 times 
 
e-|-15-14-12--------------------------------------------------------------|- 
B-|-----------15-14-12----------------------------------------------------|- 
G-|--------------------14-12-11-------------------------------------------|- 
D-|-----------------------------14-12-11--11/14---------------------------|- 
A-|--------------------------------------------12-------------------------|- 
E-|-----------------------------------------------------------------------|- 
 
     D A D A x2                   Solo thingy( I dont know completely) 
                             starts out with this note..It is mostly between 12th-17th frets 
                              on strings \"e b g\"  
e-|------------------------------|-15^------------------------------------|- 
B-|------------------------------|-------------------------------------|- 
G-|--7---7-6---------------------|-------------------------------------|- 
D-|--7-7-7-7---------------------|-------------------------------------|- 
A-|--5-7-5-7---------------------|-------------------------------------|- 
E-|----5-------------------------|-------------------------------------|- 
 

		  

Full key step upFull key step up
Half key step upHalf key step up
Half key step downHalf key step down
Full key step downFull key step down
hide glossary

See also:

tabs Ozzy Osbourne - Paranoid (live) tabs Ozzy Osbourne - Crazy Train tabs Black Sabbath - War pigs (simplificada) tabs Iron Maiden - Brave New Word tabs Iron Maiden - Children of the Damned tabs Iron Maiden - Dream Of Mirrors
e-chords

Other versions:

tabs Janes Addiction - Up The Beach
auto scroll beats size up size down change color hide chords drawings
tab show chords e-chords YouTube Clip e-chords hide all tabs e-chords go to top tab

share