Jamiroquai

home > Jamiroquai

Synkronized Tab

Jamiroquai

Difficulty: nolevelnolevel

by VsWorld

tuner correct add songbook print version text version save to e-mail
chordsukulelecavacokeyboardtabbassdrumsharmonicsflute Guitar Pro
chords

Synkronized

  		
 
e----------------------| 
B-3-2-0----------------| 
G-------0--------2p0---| 
D----------0h2-0-----2-| 
A----------------------| 
E----------------------| 
 


 
e--------------------------------------------- 
B--------------------------------------------- 
G-----4-------4p2-------------------0--------- 
D-0h2---0-0h2------2-2-----0----0-2---2-0-2-2- 
A----------------------4-4----2--------------- 
E--------------------------------------------- 
 

 
e----------------------------------| 
B----------------------------------| 
G-4-------4p2----------------------| 
D---0-0h2------2-2-----0-----5-4-2-| 
A------------------4-4---4h5-------| 
E----------------------------------| 
 


 
e-7h9-9-9-9--7h9-9-9-9--7h9-9-9-9-7h9-11---6-6-7-| 
B----------------------------------------7-------| 
G------------------------------------------------| 
D------------------------------------------------| 
A------------------------------------------------| 
E------------------------------------------------| 
 


e-7-9-11-9-7-6--7-9-11-9-7-6-| 
B----------------------------| 
G----------------------------| 
D----------------------------| 
A----------------------------| 
E----------------------------| 
	  

Search Paypal
auto scroll beats size up size down change color hide chords drawings
tab show chords e-chords YouTube Clip e-chords hide all tabs e-chords go to top tab