Jackson Wang

100 Ways

Jackson Wang

tabs

by  TEUSALVES

save to print version add songbook text version e-mail correct tuner
chordsukulelecavacokeyboardtabbassdrumsharmonicaflute Guitar Pro
close
100-ways-by-jackson-wang-

there is a video lesson for this song

chords

100 Ways

	  		INTRO | VERSE 

PM 
---------------------------------------------------------|------ 
---------------------------------------------------------|------ 
-------------------------------------------------------9-|------ 
---7-9----9-10---7-9----9-10----2-3---3-5----9-10----9---|-(2x)- 
-0------0------0------0--------------------7-------7-----|------ 
-----------------------------0------0--------------------|------ 

PM 
---------------------------------------------------------------- 
---------------------------------------------------------------- 
---------------------------------------------------------------- 
---7-9----9-10---7-9----9-10----7-9----9-10---7-9--------------- 
-0------0------0------0-------0------0------0------------------- 
---------------------------------------------------------------- 





Chorus

-----------------|------|--------------------------------------- 
-----------------|------|--------------------------------------- 
-----------------|------|--------------------------------------- 
-----------------|------|--------------------------------------- 
-----------------|------|--------------------------------------- 
-7--7-7-0--2-2---|-(2x)-|-7--7-7-0--2--------------------------- 


POST-Chorus 


-12/10\12-------------------|----------------------------------- 
----------10--10/13\12-10---|----------------------------------- 
--------------------------9-|-(2x)------------------------------ 
----------------------------|----------------------------------- 
----------------------------|----------------------------------- 
----------------------------|----------------------------------- 
		  

See also:

tabs Jackson Wang - 100 Ways
e-chords

Other versions:

tabs Jackson Wang - 100 Ways
auto scroll beats size up size down change color hide chords drawings
tab show chords e-chords YouTube Clip e-chords hide all tabs e-chords go to top tab

share