Jack Johnson

home > Jack Johnson

Home Tab

Jack Johnson

Difficulty: nolevelnolevel

by edsooliveira

tuner correct add songbook print version text version save to e-mail
chordsukulelecavacokeyboardtabbassdrumsharmonicsflute Guitar Pro
chords

Home

Key:  D More
Home Key AA
Home Key A#A#
Home Key BB
Home Key CC(one step down)
Home Key C#C#(half step down)
Home Key DD(original key)
Home Key D#D#(half step up)
Home Key EE(one step up)
Home Key FF
Home Key F#F#
Home Key GG
Home Key G#G#
  		Tuning: DADGBe 
	 
These are the riffs and fills the 2nd guitar plays on the song 'Home' by 
Jack Johnson. Since there are pretty good chord tabs out here already I thought 
it wouldn't be necessary to tab them out again, so I didn't :) 

Special thanks to Barry for giving me the tip to listen and tab this song :) 



Intro Riff						 
e|----3/5--5/7-5-------------------------------------------------------------| 
B|-3--------------7~\5-3/5--/7--5-7-5--\3--3~------5/7-5-3-0-3~--------------| 
G|---------------------------------------------------------------------------| 
D|---------------------------------------------------------------------------| 
A|---------------------------------------------------------------------------| 
D|---------------------------------------------------------------------------| 

1st fill 
e|----------------5---5------------------------------------------------------| 
B|------3--5--5/7---7--------------------------------------------------------| 
G|-2/4-----------------------------------------------------------------------| 
D|---------------------------------------------------------------------------| 
A|---------------------------------------------------------------------------| 
D|---------------------------------------------------------------------------| 

2nd fill 
e|---5-5/7-5------------------5----------------------------------------------| 
B|-7---------7\5\3----3-5-5/7------------3-----------------------------------| 
G|------------------4----------------------------------4\2-------------------| 
D|---------------------------------------------------------------------------| 
A|---------------------------------------------------------------------------| 
D|---------------------------------------------------------------------------| 

1st fill again 
e|----------------5---5------------------------------------------------------| 
B|------3--5--5/7---7--------------------------------------------------------| 
G|-2/4-----------------------------------------------------------------------| 
D|---------------------------------------------------------------------------| 
A|---------------------------------------------------------------------------| 
D|---------------------------------------------------------------------------| 

3rd fill 
e|-5/7-5---------------------------------------------------------------------| 
B|--------7\5\3------0-3-3------------------3-3------------------------------| 
G|--------------------------------------2/4----------------------------------| 
D|---------------------------------------------------------------------------| 
A|---------------------------------------------------------------------------| 
D|---------------------------------------------------------------------------| 


Chorus (= slightly modified intro riff) 

e|----3/5--5/7-5-----------------7-5-----------------------------------------| 
B|-3--------------7\5-3--5--/7-------7\5-3h5-5/7\5~-------5--3--0-3----------| 
G|---------------------------------------------------------------------------| 
D|---------------------------------------------------------------------------| 
A|---------------------------------------------------------------------------| 
D|---------------------------------------------------------------------------| 


e|----3/5--5/7-5----------------------------5-------5------------------------| 
B|-3--------------7\5-3/5-5-5-7-5---5---------7-5-----7-5-7--3--5--3---3-----| 
G|---------------------------------------------------------------------------| 
D|---------------------------------------------------------------------------| 
A|---------------------------------------------------------------------------| 
D|---------------------------------------------------------------------------| 

4th fill		   {3rd guitar starts playing this} 
e|------5--------------------2------2------2---------------------------------| 
B|-5/7-----7-5---3--------3------3------3------3-----------------------------| 
G|----------------------2------2------2------2---2---------------------------| 
D|-------------------0-------------------------------------------------------| 
A|---------------------------------------------------------------------------| 
D|---------------------------------------------------------------------------| 

5th fill 
e|----------------5---5-------------5----------------------------------------| 
B|------3--5--5/7---7------------/7---7-\5--3-----/7~------------------------| 
G|-2/4--------------------------------------------/9~-7----7-----------------| 
D|------------------------------------------------------9--------------------| 
A|---------------------------------------------------------------------------| 
D|---------------------------------------------------------------------------| 

e|---------------------------------------------------------------------------| 
B|-3-------------3-------------7---------------------------------------------| 
G|-------------------------7/9---------7-------------------------------------| 
D|---------------------------------9-----------------------------------------| 
A|---------------------------------------------------------------------------| 
D|---------------------------------------------------------------------------| 


Chorus  

there's this little riff before the last chorus and the last note of this riff 
is the first note of the chorus 
e|-----7---------------------------------------------------------------------| 
B|-5/7----7---5\3------------------------------------------------------------| 
G|---------------------------------------------------------------------------| 
D|---------------------------------------------------------------------------| 
A|---------------------------------------------------------------------------| 
D|---------------------------------------------------------------------------| 

e|----3/5--5/7-5---------------7-5---------------------5---------------------| 
B|----------------7\5-3--5--/7-------7-5---3/5-5/7\5\3---7-5-7-5-3-----------| 
G|---------------------------------------------------------------------------| 
D|---------------------------------------------------------------------------| 
A|---------------------------------------------------------------------------| 
D|---------------------------------------------------------------------------| 


e|----3/5--5/7-5------------------------------5-------5----------------------| 
B|-3--------------7\5-3-5-5-5/7-5--3-5-5--3-----7-5-----7-5-7--5-3--3--3-----| 
G|---------------------------------------------------------------------------| 
D|---------------------------------------------------------------------------| 
A|---------------------------------------------------------------------------| 
D|---------------------------------------------------------------------------| 


| /  slide up 
| \  slide down 
| h  hammer-on 
| p  pull-off 
| ~  vibrato/ hold note longer than normal 
| +  harmonic 
| x  Mute note 
===============================================================================
	  

Search Paypal
auto scroll beats size up size down change color hide chords drawings
tab show chords e-chords YouTube Clip e-chords hide all tabs e-chords go to top tab