Jacco Gardner

Lullaby Tab

Jacco Gardner

Difficulty: nolevelnolevel

by robepoiel

tuner correct add songbook print version text version save to e-mail
chordsukuleleukulelecavacokeyboardtabbassdrumsharmonicsflute Guitar Pro
close

there isn't a video lesson for this song

request
chords

Lullaby

Key:  C More
Lullaby Key GG
Lullaby Key G#G#
Lullaby Key AA
Lullaby Key A#A#(one step down)
Lullaby Key BB(half step down)
Lullaby Key CC(original key)
Lullaby Key C#C#(half step up)
Lullaby Key DD(one step up)
Lullaby Key D#D#
Lullaby Key EE
Lullaby Key FF
Lullaby Key F#F#
  		 

CAPO V 

Intro: 
e|--3---1---0-----------0-------0-------------------0------------------------| 
B|--------------3---2-------2-------0---0---3---1---2------------------------| 
G|----0---0---0---0---0---0---0---0---0---0---0---0-0------------------------| 
D|---------------------------------------------------------------------------| 
A|---------------------------------------------------------------------------| 
E|---------------------------------------------------------------------------| 

Verse: 
e|--3---1---0-----------0-------0---3---1---0-----------0-------0---3---1----| 
B|--------------3---2-------2-------------------3---2-------2----------------| 
G|----0---0---0---0---0---0---0---0---0---0---0---0---0---0---0---0---0---0--| 
D|---------------------------------------------------------------------------| 
A|---------------------------------------------------------------------------| 
E|---------------------------------------------------------------------------| 

e|--0-----------0-------0---3---1---0-----------0-------0-------1-------1----| 
B|------3---2-------2-------------------3---2-------2-------3-------3--------| 
G|----0---0---0---0---0---0---0---0---0---0---0---0---0---0---2---2---2---2--| 
D|---------------------------------------------------------------------------| 
A|---------------------------------------------------------------------------| 
E|---------------------------------------------------------------------------| 

e|------0-------0-------1-------1-------0-------0---3-----------0-------0----| 
B|--1-------1-------3-------3-------1-------1-----------0---1-------1--------| 
G|----2---2---2---2---2---2---2---2---2---2---2---2---0---0---0---2---2---2--| 
D|---------------------------------------------------------------------------| 
A|---------------------------------------------------------------------------| 
E|---------------------------------------------------------------------------| 

e|------0-------1-------0-------1-------1-------0-------0-------0-------0----| 
B|--1-------2-------1-------2-------2-------4-------4-------4-------4--------| 
G|----2---2---3---3---2---2---3---3---3---3---2---2---2---2---2---2---2---2--| 
D|---------------------------------------------------------------------------| 
A|---------------------------------------------------------------------------| 
E|---------------------------------------------------------------------------| 

Repeat Verse ^ 2 more times 
	  

Search Paypal
auto scroll beats size up size down change color hide chords drawings
tab show chords e-chords YouTube Clip e-chords hide all tabs e-chords go to top tab

share with facebook