Insomnia

Sick

Insomnia

tabs nolevel nolevel

save to print version add songbook text version e-mail correct tuner
chordsukulelecavacokeyboardtabbassdrumsharmonicaflute Guitar Pro
close

there isn't a video lesson for this song

chords

Sick

	  		 
Distorted intro- PLAY 4X 
 D#---------------------------------------------------------------  
 A#---------------------------------------------------------------  
 F#-14-1414--14-----------11-1111--11-11---11-1111--11-11---------  
 C#--X--X-X---X------------X--X-X---X--X----X--X-X---X--X--10-----  
 G#-12-1212--12------12----9--9-9---9--9----9--9-9---9--9--10-----  
 C#--0--0-0---0--13---0----0--0-0---0--0----0--0-0---0--0--10-----  
 
Heavy-PLAY 4X 
 D#---------------------------------------------------------------  
 A#---------------------------------------------------------------  
 F#-14-1414--14-----------11-1111--11-11---11-1111--11-11---------  
 C#--X--X-X---X------------X--X-X---X--X----X--X-X---X--X--10-----  
 G#-12-1212--12------12----9--9-9---9--9----9--9-9---9--9--10-----  
 C#--0--0-0---0--13---0----0--0-0---0--0----0--0-0---0--0--10-----  
 
 
WE ARE CURRENTLY STILL PERFECTING THIS SONG, ALSO WE ARE BUILDING A WEBSITE WHERE YOU CAN HEAR ALL
THESE SONGS SO YOU KNOW HOW THEY SOUND.YOU CAN EMAIL ME AT [email protected] 
		  

See also:

tabs Queen - Bohemian Rhapsody tabs Coldplay - Clocks tabs Deep Purple - Smoke On The Water (Easy Intro) tabs The Beatles - And i love her(guitar full version) tabs The Beatles - All You Need Is Love Acoustic tabs Skid Row - 18 And Life
e-chords

Other versions:

tabs Automatic - Sick tabs Insomnia - Sick tabs Sneaker pimps - Sick tabs The Twilight Sad - Sick tabs Fort Hope - Sick tabs Cross Canadian Ragweed - Sick & Tired
auto scroll beats size up size down change color hide chords drawings
tab show chords e-chords YouTube Clip e-chords hide all tabs e-chords go to top tab

share with facebook