Insomnia

Second Time

Insomnia

tabs nolevel nolevel

save to print version add songbook text version e-mail correct tuner
chordsukulelecavacokeyboardtabbassdrumsharmonicaflute Guitar Pro
close

there isn't a video lesson for this song

chords

Second Time

	  		 
tuning B F# B E G# C# 
1st do it distorted and the heavy 
C#-------------------------------------------- 
G#-------------------------------------------- 
E--------------------------------------------- 
B---0--2--3--5------0--2--3--5---------------- 
F#--0--2--3--5------0--2--3--5---------------- 
B---0--2--3--5------0--2--3--5---------------- 
 
Chorus- heavy 
C#-------------------------------------------- 
G#--------------------------------------------
E--------------------------------------------- 
B---0-0-------0h2-5-6---0-78-10--------------- 
F#--0-0----5*-0h2-5-6---0-78-10--------------- 
B---0-0-5*----0h2-5-6---0-78-10--------------- 
 
[email protected] 
 

		  

Full key step upFull key step up
Half key step upHalf key step up
Half key step downHalf key step down
Full key step downFull key step down
hide glossary

See also:

tabs Queen - Bohemian Rhapsody tabs Coldplay - Clocks tabs Deep Purple - Smoke On The Water (Easy Intro) tabs The Beatles - And i love her(guitar full version) tabs The Beatles - All You Need Is Love Acoustic tabs Skid Row - 18 And Life
e-chords

Other versions:

tabs Insomnia - Second Time
auto scroll beats size up size down change color hide chords drawings
tab show chords e-chords YouTube Clip e-chords hide all tabs e-chords go to top tab

share with facebook