Imelda May

home > Imelda May

Mayhem Tab

Imelda May

Difficulty: BeginnerBeginner

by fernsantana

tuner correct add songbook print version text version save to e-mail
chordsukulelecavacokeyboardtabbassdrumsharmonicsflute Guitar Pro
chords

Mayhem

  		Imelda May - Mayhem 

Transcribed by Christian Fuentes 

I'm not quite sure about the Chorus, and other parts may need some improving but I think 
it's kind of accurate. 

Intro 

|--------------------------------------------------------| 
|--------------------------------------------------------| 
|----------------------------------------------3-3--3-2--| 
|-2-2--0-2-0-----------------------------------2-2--2-1--| 
|------------2-0-2-2--0-2-0---------------0-2--3-3--3-2--| 
|---------------------------3-2-0--0-0-0-3---------------| 

Pre-verse 

|--------------------| 
|--------------------| 
|--------------------| 
|--2-2--0-2----------| 
|-----------2--------| 
|-------------3-0----| 

Verse 

(In the first part of the first verse both guitars are muted. And guitar 2 
only applies to 2nd and 3rd verse) 

Guitar 1 
|----------------------------------| 
|----------------------------------| 
|--3---3---3---3---3---3---3-3-2---| 
|--2---2---2---2---2---2---2-2-1---| 
|--3---3---3---3---3---3---3-3-2---| 
|----------------------------------| 

Guitar 2 
|---------------------------------| 
|---------------------------------| 
|--------------------------3-3-2--| 
|--2--2---0--2-------------2-2-1--| 
|--------------2-----------3-3-2--| 
|----------------3--0-------------| 

Pre-Chorus 

|--------------0~---------------0~---| 
|-----------3----------------3-------| 
|--------3----------------2----------| 
|-----2----------------1-------------| 
|--3----------------2----------------| 
|------------------------------------| 

Chorus 

|-------------------------------------------| 
|-------------------------------------------| 
|-------------------------------------------| 
|--2-2----------2-----2-----------------2---| 
|--2-2----2--5--2-----2----5--5---2-----2---| 
|--0-0--3-------0--3--0--------------3--0---| 

Interlude 

|---------------------------------------------------------------| 
|---------------------------------------------------------------| 
|--3------2------3------2--3--2--3--2--3--2--3--2--3--2--3--2---| 
|--2------1------2------1--2--1--2--1--2--1--2--1--2--1--2--1---| 
|--3------2------3------2--3--2--3--2--3--2--3--2--3--2--3--2---| 
|---------------------------------------------------------------| 


And the structure is  

Intro x2 
Pre-verse x4 
Verse x2 
Pre-Chorus 
Chorus x4 
Intro 
Verse x2 
Pre-Chorus 
Chorus x4 
Interlude 
Solo 
Verse x2 
Pre-Chorus 
Chorus x8 
Intro x2 
	  

Search Paypal
auto scroll beats size up size down change color hide chords drawings
tab show chords e-chords YouTube Clip e-chords hide all tabs e-chords go to top tab