I The Mighty

Escalators

I The Mighty

tabs

by  JOV-CORREA

save to print version add songbook text version e-mail correct tuner
chordsukulelecavacokeyboardtabbassdrumsharmonicaflute Guitar Pro
close

there isn't a video lesson for this song

chords

Escalators

	  		


Guitar One 
D#|---------------------------------------------------------------------------| 
A#|---------------------------------------------------------------------------| 
F#|---------------------------------------------------------------------------| 
C#|-12/0----12/0---10101010-12/0---10-12/0---10101010-------------------------| 
G#|-12/0----12/0---10101010-12/0---10-12/0---10101010-------------------------| 
C#|-12/0----12/0---10101010-12/0---10-12/0---10101010-------------------------| 

Guitar Two 
D#|-----------------------------------------------------------------------------------| 
A#|-------13-10-0-8-0-6-0---------13-10-8-----------13-10-0-8-0-6-0----13-10p13h10p13-| 
F#|9-10-------------------9-10--------------9-10--------------------9-----------------| 
C#|-----12---------------------12----------------12-----------------------------------| 
G#|-----------------------------------------------------------------------------------| X2 
C#|-----------------------------------------------------------------------------------| 

0:14 - 1:08 
Guitar One skips the first two bars and then repeatedly plays this chord. 
Guitar One 
D#|-0--------------------------------------------------------------------------| 
A#|-6--------------------------------------------------------------------------| 
F#|-7--------------------------------------------------------------------------| 
C#|-0--------------------------------------------------------------------------| 
G#|----------------------------------------------------------------------------| 
C#|----------------------------------------------------------------------------| 

Guitar Two 
D#|-------------------------------------------7---7---------7---7-------------| 
A#|-6-6-6-6-6-6-6-6-6-6-6-6-8-8-8-8-5-5-5-5-5---5---5-5-5-5---5---5-----------| 
F#|--7-7-7-7-7-7-7-7-7-7-7-7-7-7-7-7-5-5-5-5-5-5-5-5-5-5-5-5-5-5-5-5----------| 
C#|---------------------------------------------------------------------------| X4 
G#|---------------------------------------------------------------------------| 
C#|---------------------------------------------------------------------------| 

1:07 - 1:18 

Guitar One 
D#|---------------------------------------------------------------------------| 
A#|---------------------------------------------------------------------------| 
F#|---------------------------------------------------------------------------| 
C#|-12/0----12/0---10101010-12/0---10-12/0--xxx-------------------------------| 
G#|-12/0----12/0---10101010-12/0---10-12/0--xxx-------------------------------| 
C#|-12/0----12/0---10101010-12/0---10-12/0--xxx-------------------------------| 

Guitar Two 
D#|-----------------------------------------------------------------------------------| 
A#|-------13-10-0-8-0-6-0---------13-10-8-----------13-10-0-8-0-6-0----13-10p13h10p13-| 
F#|9-10-------------------9-10--------------9-10--------------------9-----------------| 
C#|-----12---------------------12----------------12-----------------------------------| 
G#|-----------------------------------------------------------------------------------| X2 
C#|-----------------------------------------------------------------------------------| 

1:19 - 1:37 

Guitar One 
D#|---------------------------------------------------------------------------| 
A#|---------------------------------------------------------------------------| 
F#|---------------------------------------------------------------------------| 
C#|8-----5-----0-----3-----8-----5------0-7-5-0-10-12-0-7-5-0-10-12-----------| 
G#|8-X8--5-X8--0-X8--3-X8--8-X8--5-X8-----------------------------------------| 
C#|8-----5-----0-----3-----8-----5--------------------------------------------| 

D#|---------------------------------------------------------------------------| 
A#|---------------------------------------------------------------------------| 
F#|---------------------------------------------------------------------------| 
C#|8-----5-----0------------------8-----5----0~~~-----------------------------| 
G#|8-X8--5-X8--0-X8---------------8-X8--5-X8-0~~~-----------------------------| 
C#|8-----5-----0-----10h12-5p0----8-----5----0~~~-----------------------------| 


Guitar Two 
D#|---------------------------------------------------------------------------| 
A#|-----------------------------------------------------10b-------------------| 
F#|-14--7--10-12--14--7-------------------------------------------------------| 
C#|--x--x--x---x---x--x--0-12-10-0-14-15-0-12-10-0-14-15----------------------| 
G#|-12--5--8--10--12--5-------------------------------------------------------| 
C#|---------------------------------------------------------------------------| 

D#|---------------------------------------------------------------------------| 
A#|-----------------------6-6-6-6-6-6-6-6-6-6-6-6-/22-------------------------| 
F#|-14--7--10-12--14--7----7-7-7-7-7-7-7-7-7-7-7-7/22-------------------------| 
C#|--x--x--x---x---x--x-------------------------------------------------------| 
G#|-12--5--8--10--12--5-------------------------------------------------------| 
C#|---------------------------------------------------------------------------| 

1:38 - 2:14 
Guitar One 
D#|-0--------------------------------------------------------------------------| 
A#|-6--------------------------------------------------------------------------| 
F#|-7--------------------------------------------------------------------------| 
C#|-0--------------------------------------------------------------------------| 
G#|----------------------------------------------------------------------------| 
C#|----------------------------------------------------------------------------| 

Guitar Two 
D#|-------------------------------------------7---7---------7---7-------------| 
A#|-6-6-6-6-6-6-6-6-6-6-6-6-8-8-8-8-5-5-5-5-5---5---5-5-5-5---5---5-----------| 
F#|--7-7-7-7-7-7-7-7-7-7-7-7-7-7-7-7-5-5-5-5-5-5-5-5-5-5-5-5-5-5-5-5----------| 
C#|---------------------------------------------------------------------------| X4 
G#|---------------------------------------------------------------------------| 
C#|---------------------------------------------------------------------------| 

2:15 - 2:19 

Guitar One 
D#|----------------------------------------------------| 
A#|----------------------------------------------------| 
F#|----------------------------------------------------| 
C#|--12/0---10-12/0--xxx-------------------------------| 
G#|--12/0---10-12/0--xxx-------------------------------| 
C#|--12/0---10-12/0--xxx-------------------------------| 

Guitar Two 
D#|-----------------------------------------------------------------------------------| 
A#|-------13-10-0-8-0-6-0---------13-10-8-----------13-10-0-8-0-6-0----13-10p13h10p13-| 
F#|9-10-------------------9-10--------------9-10--------------------9-----------------| 
C#|-----12---------------------12----------------12-----------------------------------| 
G#|-----------------------------------------------------------------------------------|  
C#|-----------------------------------------------------------------------------------| 

2:19 -2:41 

Guitar One 
D#|---------------------------------------------------------------------------| 
A#|---------------------------------------------------------------------------| 
F#|---------------------------------------------------------------------------| 
C#|8-----5-----0-----3-----8-----5------0-7-5-0-10-12-0-7-5-0-10-12-----------| 
G#|8-X8--5-X8--0-X8--3-X8--8-X8--5-X8-----------------------------------------| 
C#|8-----5-----0-----3-----8-----5--------------------------------------------| 

D#|---------------------------------------------------------------------------| 
A#|---------------------------------------------------------------------------| 
F#|---------------------------------------------------------------------------| 
C#|8-----5-----0------------------8-----5----0~~~-----------------------------| 
G#|8-X8--5-X8--0-X8---------------8-X8--5-X8-0~~~-----------------------------| 
C#|8-----5-----0-----10h12-5p0----8-----5----0~~~-----------------------------| 


Guitar Two 
D#|---------------------------------------------------------------------------| 
A#|-----------------------------------------------------10b-------------------| 
F#|-14--7--10-12--14--7-------------------------------------------------------| 
C#|--x--x--x---x---x--x--0-12-10-0-14-15-0-12-10-0-14-15----------------------| 
G#|-12--5--8--10--12--5-------------------------------------------------------| 
C#|---------------------------------------------------------------------------| 

D#|---------------------------------------------------------------------------| 
A#|---------------------------------------------------------------------------| 
F#|-14--7--10-12--14--7-------------------------------------------------------| 
C#|--x--x--x---x---x--x-------------------------------------------------------| 
G#|-12--5--8--10--12--5-------------------------------------------------------| 
C#|---------------------------------------------------------------------------| 

2:42 - 3:03 

Guitar One 
D#|---------------------------------------------------------------------------| 
A#|---------------------------------------------------------------------------| 
F#|--7-9-10-14--7x6-9x10-10x6-14x10-7x6-9x10-10x6-15x4-14x4-------------------| 
C#|---------------------------------------------------------------------------| 
G#|---------------------------------------------------------------------------| 
C#|---------------------------------------------------------------------------| 
  
Guitar Two 
D#|------8-10------|--12-13-12-10-12-10----------------------------------------| 
A#|-10-8------10---|--------------------13-131313-13-10-13-10-13-10-10---------| 
F#|----------------|-----------------------------------------------------------| 
C#|----------------|-----------------------------------------------------------| X3 
G#|----------------|-----------------------------------------------------------| 
C#|----------------|-----------------------------------------------------------| 

D#|-12-13-12-10-12-10-12-12-17-17/0-------------------------------------------| 
A#|---------------------------------------------------------------------------| 
F#|---------------------------------------------------------------------------| 
C#|---------------------------------------------------------------------------| 
G#|---------------------------------------------------------------------------| 
C#|---------------------------------------------------------------------------| 

3:04 - 3:44 
Guitar One 
D#|---------------------------------------------------------------------------| 
A#|---------------------------------------------------------------------------| 
F#|-3--------------5----------------------------------------------------------| 
C#|-3--X32--0------5-X16------------------------------------------------------| 
G#|-1-------0-X16--3----------------------------------------------------------| 
C#|---------0-----------------------------------------------------------------| 

Guitar Two( The only part I couldn't figure out, it was just too quiet) 
D#|---------------------------------------------------------------------------| 
A#|---------------------------------------------------------------------------| 
F#|---------------------------------------------------------------------------| 
C#|---------------------------------------------------------------------------| 
G#|---------------------------------------------------------------------------| 
C#|---------------------------------------------------------------------------| 

3:45 - 4:06 
Guitar One 
D#|---------------------------------------------------------------------------| 
A#|---------------------------------------------------------------------------| 
F#|-3---------7------5--------------------------------------------------------| 
C#|-3-X32-----7-X16--5-X16----------------------------------------------------| 
G#|-1---------5------3--------------------------------------------------------| 
C#|---------------------------------------------------------------------------| 

D#|---------------------------------------------------------------------------| 
A#|---------------------------------------------------------------------------| 
F#|-7---10-14-----7--10--14-12----7--10--14----7-12--12-----------------------| 
C#|-x---x---x-----x---x---x--x----x---x---x----x--x---x-X16-------------------| 
G#|-5---8--12-----5---8--12-10----5---8--12----5-10--10-----------------------| 
C#|---------------------------------------------------------------------------| 
                                                      .  
4:07 - 4:27 

Guitar One 
D#|---------------------------------------------------------------------------| 
A#|---------------------------------------------------------------------------| 
F#|---------------------------------------------------------------------------| 
C#|8-----5-----0-----3-----8-----5------0-7-5-0-10-12-0-7-5-0-10-12-----------| 
G#|8-X8--5-X8--0-X8--3-X8--8-X8--5-X8-----------------------------------------| 
C#|8-----5-----0-----3-----8-----5--------------------------------------------| 

D#|---------------------------------------------------------------------------| 
A#|---------------------------------------------------------------------------| 
F#|---------------------------------------------------------------------------| 
C#|8-----5-----0------------------8-----5----0-0-0-0-0-0-0-0------------------| 
G#|8-X8--5-X8--0-X8---------------8-X8--5-X8-0-0-0-0-0-0-0-0------------------| 
C#|8-----5-----0-----10h12-5p0----8-----5----0-0-0-0-0-0-0-0------------------| 


Guitar Two 
D#|---------------------------------------------------------------------------| 
A#|-----------------------------------------------------10b-------------------| 
F#|-14--7--10-12--14--7-------------------------------------------------------| 
C#|--x--x--x---x---x--x--0-12-10-0-14-15-0-12-10-0-14-15----------------------| 
G#|-12--5--8--10--12--5-------------------------------------------------------| 
C#|---------------------------------------------------------------------------| 

D#|---------------------------------------------------------------------------| 
A#|---------------------------------------------------------------------------| 
F#|-14--7--10-12--14--7-------------------------------------------------------| 
C#|--x--x--x---x---x--x--0-0-0-0-0-0-0-0--------------------------------------| 
G#|-12--5--8--10--12--5--0-0-0-0-0-0-0-0--------------------------------------| 
C#|----------------------0-0-0-0-0-0-0-0--------------------------------------| 


If you find any mistakes put them in the comments. Bless anyone that can figure out that lead part 
because it is just too damn quiet. Have fun playing a great song by I the Mighty and cheers! 




************************************ 

| /   slide up 
| \   slide down 
| h   hammer-on 
| p   pull-off 
| ~   vibrato 
| +   harmonic 
| x   Mute note 
| b   Bend 
| pb  Pre-bend 
| br  Bend release 
| pbr Pre-bend release 
| brb Bend release bend 

************************************ 
		  

See also:

tabs Misc Computer Games - Undertale - Main Theme (acoustic) tabs Andy James - Separation tabs Misc Computer Games - Chrono Trigger - Corridors Of Time tabs Misc Computer Games - Resident Evil 4 - Save Theme tabs Misc Computer Games - Far Cry 5 - Now That This Old World Is Ending tabs Misc Computer Games - The Witcher 3 Ost - Lullaby Of Woe A Night To Remember Song (acoustic)
e-chords

Other versions:

tabs I The Mighty - Escalators
auto scroll beats size up size down change color hide chords drawings
tab show chords e-chords YouTube Clip e-chords hide all tabs e-chords go to top tab

share