Hudson Taylor

Left Alone

Hudson Taylor

tabs Easy easy

by  PAULLET3

save to print version add songbook text version e-mail correct tuner
chordsukulelecavacokeyboardtabbassdrumsharmonicaflute Guitar Pro
close

there isn't a video lesson for this song

chords

Left Alone

	  		
Intro: 

e|----------------------|-----------------------|-----0h2--------3--2--2--| 
B|-----3-------3--3--3--|-----3------------3----|----------3-----3--3--3--| 
G|--------2----2--0--2--|--2----2-------0----0--|-----0h2-----2-----------| 
D|--0-------0--4--2--0--|-----------------------|-------------------------| 
A|----------------------|----------0h2----------|-------------------------| 
E|----------------------|-----------------------|--2-------------3--2--0--| 

e|----------0-----------| 
B|-----3-------3--------| 
G|-------0--------0-----| 
D|----------------------| x2 
A|--2-------------------| 
E|----------------------| 

Verse: 
                                               this 3 notes are only played 
e|-----------------------|------------------------|from second verse onwards. 
B|-----3----------3------|---------3----------3---| 
G|--------2----------2---|------0----0-----0----0-| 
D|--0-------0--4-------4-|-0h2----------2---------| 
A|-----------------------|------------------------| 
E|-----------------------|------------------------| 
                                               
e|-----------------------|------------------------| 
B|-----3----------3------|---------3----------3---| 
G|--------2----------2---|------0----0-----0----0-| 
D|--0-------0--4-------4-|-0h2----------2---------| 
A|-----------------------|------------------------| 
E|-----------------------|------------------------| 

e|-----------------------|--------------------------| 
B|-----3----------3------|---------3------------3---| 
G|--------2----------2---|------0----0-------0----0-| 
D|--0-------0--4-------4-|-0h2----------------------| 
A|-----------------------|--------------0h2---------| 
E|-----------------------|--------------------------| 

e|-----0h2-------3--2--2-|----------0------------| 
B|----------3----3--3--3-|-----3-------3---------| 
G|-----0h2----2----------|-------0--------0------| 
D|-----------------------|-----------------------| 
A|-----------------------|--2--------------------| 
E|--2------------3--2--0-|-----------------------| 

Pre-Chorus: 

   A7              Bm        Bm/G 
e|-----------------------------------------------------------------------------| 
B|-----2---------------3---------3----------3-----------3----------3-----------| 
G|-----0---------------4------------4----------4-----------4----------4--------| 
D|------------------------------------4-----------4----------4----------4------| 
A|--0---------------2----------------------------------------------------------| 
E|----------------------------3----------3-----------3----------3--------------| 
    "god..."   "Trier..." 

    A7                             Bm 
e|------------------------|------------------------| 
B|-----2----------2-------|-----3----------3-------| 
G|--------0----------0----|--------4----------4----| 
D|----------2----------2--|----------4----------4--| 
A|--0----------0----------|--2----------2----------| 
E|------------------------|------------------------| 

  Bm/G 
e|------------------------|------------------------| 
B|-----3----------3-------|-----3----------3-------| 
G|--------4----------4----|--------4----------4----| 
D|----------4----------4--|----------4----------4--| 
A|------------------------|------------------------| 
E|--3----------3----------|--3----------3----------| 

Chorus: 

e|------------------------|------------------------| 
B|-----3----------3-------|-----3----------3-------| 
G|--------2----------2----|--------0----------0----| 
D|--0-------0-------------|------------------------| 
A|-------------4-------4--|--2-------2--4-------4--| 
E|------------------------|------------------------| 

e|------------------------|------------------------| 
B|-----3----------3-------|-----3----------3-------| 
G|--------2----------2----|--------0----------0----| 
D|--0-------0-------------|------------------------| 
A|-------------4-------4--|--2-------2--4-------4--| 
E|------------------------|------------------------| 

e|------------------------|------------------------| 
B|-----3----------3-------|-----3----------3-------| 
G|--------2----------2----|--------0----------0----| 
D|--0-------0-------------|------------------------| 
A|-------------4-------4--|--2-------2--0-------0--| 
E|------------------------|------------------------| 

e|------------------------|------------------------| 
B|-----3----------3-------|-----3----------3-------| 
G|--------4----------4----|--------4----------4----| 
D|----------4----------4--|----------4----------4--| 
A|------------------------|------------------------| 
E|--4----------4----------|--4----------4----------| 

e|------------------------|------------------------| 
B|-----3----------3-------|-----3----------3-------| 
G|--------2----------2----|--------2----------2----| 
D|----------0----------0--|----------0----------0--| 
A|------------------------|------------------------| 
E|--3----------3----------|--3----------3----------| 

intro 

verse 

pre chorus 

chorus 

bridge: 

   C           G            Bm        A7 
e|------------------------|------------------------| 
B|-----1----------3-------|-----3----------2-------| 
G|--------0----------0----|--------4----------0----| 
D|----------2----------0--|----------4----------2--| 
A|--3---------------------|--2----------0----------| 
E|-------------3----------|------------------------| 

   C           G            Bm        A7 
e|------------------------|------------------------| 
B|-----1----------3-------|-----3----------2-------| 
G|--------0----------0----|--------4----------0----| 
D|-----0h2--2----------0--|----------4----------2--| 
A|--3---------------------|--2----------0----------| 
E|-------------3----------|------------------------| 

   C           G            Bm 
e|------------------------|------------------------| 
B|-----1----------3-------|---2h3----------3-------| 
G|--------0----------0----|--------4----------4----| 
D|-----0h2--2----------0--|----------4----------4--| 
A|--3---------------------|--2----------2----------| 
E|-------------3----------|------------------------| 

   A7 
e|------------------------|------------------------| 
B|-----2----------2-------|-----5----------5-------| 
G|--------0----------0----|--------0----------0----| 
D|----------2----------2--|----------5----------5--| 
A|--0----------0----------|--0----------0----------| 
E|------------------------|------------------------| 

e|------------------------|------------------------| 
B|-----8----------8-------|--10--------------------| 
G|--------0----------0----|--0---------------------| 
D|----------9----------9--|--11--------------------| 
A|--0----------0----------|--0---------------------| 
E|------------------------|------------------------| 

Last pre-chorus: 

e|---------------------------------------| 
B|--2--------------3-----------3---------| 
G|--0--------------4-----------4---------| 
D|---------------------------------------| 
A|--0--------------2---------------------| 
E|-----------------------------3---------| 
   "I'll be.."  "liar..."  "take..." 

chorus (repeat last 4 bars once) 

ending: 

e|----------------------|-----------------------|----------3--2--2--| 
B|-----3-------3--3--3--|-----3----3--3--3------|-----3----3--3--3--| 
G|--------2----2--0--2--|--2----2--2--0--2------|--2----2-----------| 
D|--0-------0--4--2--0--|-----------------------|-------------------| 
A|----------------------|----------4--2--0------|-------------------| 
E|----------------------|-----------------------|----------3--2--0--| 

e|----------3--2--2--|----------3--2-----|--2h3p2--2-------------------| 
B|-----3----3--3--3--|-----3----3--3-----|------------3----------------| 
G|--2----2-----------|--2----2-----------|---------------4--2--0-------| 
D|-------------------|-------------------|--0--------------------------| 
A|-------------------|-------------------|-----------------------------| 
E|----------3--2--0--|----------3--2-----|------------------------(0)--|  
		  

Full key step upFull key step up
Half key step upHalf key step up
Half key step downHalf key step down
Full key step downFull key step down
auto scroll beats size up size down change color hide chords drawings
tab show chords e-chords YouTube Clip e-chords hide all tabs e-chords go to top tab

share