Homie

1000 Years

Homie

tabs

by  WEEZER PILLOWS

save to print version add songbook text version e-mail correct tuner
chordsukulelecavacokeyboardtabbassdrumsharmonicaflute Guitar Pro
close

there isn't a video lesson for this song

chords

1000 Years

	  		STANDARD TUNING 

Intro / Verse 
G|---------------------------| 
D|---------------------------|just keep playing 
A|--0-0-0-0-0-0-0-0-0-0-0-0--|the A note. 
E|---------------------------| 

Pre-Chorus 
G|-----------------------------------| 
D|-----------------------------------| 
A|--------------------------0-0-0-0--| 
E|--0-0-0-0-1-1-1-1-3-3-3-3----------| 

G|-----------------------------------| 
D|-----------------------------------| 
A|--2-2-2-2-3-3-3-3-5-5-5-5-5-5-5-5--| 
E|-----------------------------------| 

G|-----------------------------------| 
D|-----------------------------------| 
A|--------------------------0-0-0-0--| 
E|--0-0-0-0-1-1-1-1-3-3-3-3----------| 

G|-----------------------------------| 
D|-----------------------------------| 
A|--2-2-2-2-2-2-2-2-3-3-3-3-3-3-3-3--| 
E|-----------------------------------| 

Chorus ("Her love is like the sea....") 
G|-----------------------------------| 
D|-----------------------------------| 
A|-----------------------------------| 
E|--0-0-0-0-0-0-0-0-1-1-1-1-1-1-1-1--| 

G|-----------------------------------| 
D|-----------------------------------| 
A|-----------------------------------| 
E|--5-5-5-5-5-5-5-5-3-3-3-3-3-3-3-3--| 




		  

See also:

tabs Maroon 5 - Sweetest Goodbye tabs Stevie Wonder - Sir Duke tabs Kelly Clarkson - You Found Me tabs Black Eyed Peas - My humps/ver.2 tabs Michael Jackson - Billie Jean (Fingerstyle) tabs Collective Soul - Shine
e-chords

Other versions:

tabs Homie - 1000 Years
auto scroll beats size up size down change color hide chords drawings
tab show chords e-chords YouTube Clip e-chords hide all tabs e-chords go to top tab

share