HIM

home > HIM

Death In Love With Us Tab

HIM

Difficulty: nolevelnolevel

by VELHO

tuner correct add songbook print version text version save to e-mail
chordsukulelecavacokeyboardtabbassdrumsharmonicsflute Guitar Pro
chords

Death In Love With Us

  		    RIFF INTRO 
E||------------------------|--------------------------| 
B||------------------------|--------------------------| 
G||--4----4----4--6--6--7--|----7--7--7--7--9--9--11--| 
D||--4----4----4--6--6--7--|----7--7--7--7--9--9--11--| 
A||--2----2----2--4--4--5--|----5--5--5--5--7--7--9---| 
E||------------------------|--------------------------| 

                                                          
|------------------------------|-------------------------| 
|------------------------------|-------------------------| 
|----11--11--11--11--9--11--9--|----9--9--9--9--9--9--9--| 
|----11--11--11--11--9--11--9--|----9--9--9--9--9--9--9--| 
|----9---9---9---9---7--9---7--|----7--7--7--7--7--7--7--| 
|------------------------------|-------------------------| 

                                                        
|--------------------------|--------------------------| 
|--------------------------|--------------------------| 
|--7--7--7--7--7--7--7--7--|--9--9--9--9--9-----------| 
|--7--7--7--7--7--7--7--7--|--9--9--9--9--9--7--7--4--| 
|--5--5--5--5--5--5--5--5--|--7--7--7--7--7--7--7--4--| 
|--------------------------|-----------------5--5--2--| 


  Verse1 
  KEYBOARD                                                        
|------------------------|--------------------------| 
|------------------------|--------------------------| 
|------------------------|--------------------------| 
|------4--4--4--4--4--4--|--2--2--2--2--2--2--2--2--| 
|------4--4--4--4--4--4--|--2--2--2--2--2--2--2--2--| 
|------2--2--2--2--2--2--|--0--0--0--0--0--0--0--0--| 
 |-------------------------------------------------| 

                                                       
|--------------------------|--------------------------| 
|--------------------------|--------------------------| 
|--------------------------|--------------------------| 
|--4--4--4--4--4--4--4--4--|--2--2--2--2--2--2--2--2--| 
|--4--4--4--4--4--4--4--4--|--2--2--2--2--2--2--2--2--| 
|--2--2--2--2--2--2--2--2--|--0--0--0--0--0--0--0--0--| 
 |--------------------------------------------------| 

                                                       
|--------------------------|--------------------------| 
|--------------------------|--------------------------| 
|--------------------------|--------------------------| 
|--7--7--7--7--7--7--7--7--|--------------------------| 
|--5--5--5--5--5--5--5--5--|--9--9--9--9--9--9--9--9--| 
|--------------------------|--7--7--7--7--7--7--7--7--| 
 |--------------------------------------------------| 

                                                     
|--------------------------|-----------------------| 
|--------------------------|-----------------------| 
|--------------------------|-----------------------| 
|--------------------------|--2--2--2--2--2--------| 
|--7--7--7--7--7--7--7--7--|--2--2--2--2--2--------| 
|--5--5--5--5--5--5--5--5--|--0--0--0--0--0--------| 
 |------------------------------------------------| 


              Verse2		  
|----------|-------------------------|-------------------------| 
|----------|-------------------------|-------------------------| 
|----------|-------------------------|-------------------------| 
|-7--7--4--|----4--4--4--4--2--4--2--|----2--2--2--2--7--7--4--| 
|-7--7--4--|----4--4--4--4--2--4--2--|----2--2--2--2--7--7--4--| 
|-5--5--2--|----2--2--2--2--0--2--0--|----0--0--0--0--5--5--2--| 

                                                                               
|---------------------|---------------------|----------------------| 
|---------------------|---------------------|----------------------| 
|---------------------|-------------------7-|-7--7--7--7--6--6--4--| 
|-4--4--4--4--2--4--2-|-2--2--2--2--4--7--7-|-7--7--7--7--6--6--4--| 
|-4--4--4--4--2--4--2-|-2--2--2--2--4--7--5-|-5--5--5--5--4--4--2--| 
|-2--2--2--2--0--2--0-|-0--0--0--0--2--5----|----------------------| 

                                                                     
|-------------------------|---------------|---------------------| 
|-------------------------|---------------|---------------------| 
|----4--4--4--4--4--4--2--|---------------|-----------19-------| 
|----4--4--4--4--4--4--2--|---------------|--2--------19-------| 
|----2--2--2--2--2--2--0--|---------------|--2--------19-------| 
|-------------------------|---------------|--0--------19-------| 


  Chorus 
  RIFF Chorus                                          
|------------------------|--------------------------| 
|------------------------|--------------------------| 
|--4----4----4--6--6--7--|----7--7--7--7--9--9--11--| 
|--4----4----4--6--6--7--|----7--7--7--7--9--9--11--| 
|--2----2----2--4--4--5--|----5--5--5--5--7--7--9---| 
|------------------------|--------------------------| 

                                                          
|------------------------------|-------------------------| 
|------------------------------|-------------------------| 
|----11--11--11--11--9--11--9--|----9--9--9--9--9--9--9--| 
|----11--11--11--11--9--11--9--|----9--9--9--9--9--9--9--| 
|----9---9---9---9---7--9---7--|----7--7--7--7--7--7--7--| 
|------------------------------|-------------------------| 

                                                                                 
|--------------------|----------------------|---------------------| 
|--------------------|----------------------|---------------------| 
|-7-7-7-7-7--7--7--7-|-9-9--9--9--9---------|---------------------| 
|-7-7-7-7-7--7--7--7-|-9-9--9--9--9-7--7--4-|-4--4--4--4--2--4--2-| 
|-5-5-5-5-5--5--5--5-|-7-7--7--7--7-7--7--4-|-4--4--4--4--2--4--2-| 
|--------------------|--------------5--5--2-|-2--2--2--2--0--2--0-| 

                                                                                 
|------------------|----------------------|-----------------------| 
|------------------|----------------------|-----------------------| 
|------------------|-7-7--7--7--7-7--7--7-|-9--9-9--9--9----------| 
|-2-2-2-2-2--2--2--|-7-7--7--7--7-7--7--7-|-9--9-9--9--9--7--7--4-| 
|-2-2-2-2-2--2--2--|-5-5--5--5--5-5--5--5-|-7--7-7--7--7--7--7--4-| 
|-0-0-0-0-0--0--0--|----------------------|---------------5--5--2-| 


  Verse3 
  KEYBOARD                                                        
|------------------------|--------------------------| 
|------------------------|--------------------------| 
|------------------------|--------------------------| 
|------4--4--4--4--4--4--|--2--2--2--2--2--2--2--2--| 
|------4--4--4--4--4--4--|--2--2--2--2--2--2--2--2--| 
|------2--2--2--2--2--2--|--0--0--0--0--0--0--0--0--| 
 |------------------------------------------------| 

                                                       
|--------------------------|--------------------------| 
|--------------------------|--------------------------| 
|--------------------------|--------------------------| 
|--4--4--4--4--4--4--4--4--|--2--2--2--2--2--2--2--2--| 
|--4--4--4--4--4--4--4--4--|--2--2--2--2--2--2--2--2--| 
|--2--2--2--2--2--2--2--2--|--0--0--0--0--0--0--0--0--| 
 |--------------------------------------------------| 

                                                      
|--------------------------|--------------------------| 
|--------------------------|--------------------------| 
|--------------------------|--------------------------| 
|--7--7--7--7--7--7--7--7--|--------------------------| 
|--5--5--5--5--5--5--5--5--|--9--9--9--9--9--9--9--9--| 
|--------------------------|--7--7--7--7--7--7--7--7--| 
 |---------------------------------------------------| 
  
                                                    
|--------------------------|-----------------------| 
|--------------------------|-----------------------| 
|--------------------------|-----------------------| 
|--------------------------|--2--2--2--2--2--------| 
|--7--7--7--7--7--7--7--7--|--2--2--2--2--2--------| 
|--5--5--5--5--5--5--5--5--|--0--0--0--0--0--------| 
 |------------------------------------------------| 


                         Verse4 
|---------------------|-------------------------| 
|---------------------|-------------------------| 
|---------------------|-------------------------| 
|------------7--7--4--|----4--4--4--4--2--4--2--| 
|------------7--7--4--|----4--4--4--4--2--4--2--| 
|------------5--5--2--|----2--2--2--2--0--2--0--| 

                                                                               
|------------------|---------------------|-----------------------| 
|------------------|---------------------|-----------------------| 
|------------------|---------------------|--------------------7--| 
|-2-2-2-2-7--7--4--|-4--4--4--4-2--4--2--|--2--2--2--2--4--7--7--| 
|-2-2-2-2-7--7--4--|-4--4--4--4-2--4--2--|--2--2--2--2--4--7--5--| 
|-0-0-0-0-5--5--2--|-2--2--2--2-0--2--0--|--0--0--0--0--2--5-----| 

                                                                        
|----------------------|-------------------------|----------------| 
|----------------------|-------------------------|----------------| 
|-7--7--7--7--6--6--4--|----4--4--4--4--4--4--2--|----------------| 
|-7--7--7--7--6--6--4--|----4--4--4--4--4--4--2--|----------------| 
|-5--5--5--5--4--4--2--|----2--2--2--2--2--2--0--|----------------| 
|----------------------|-------------------------|----------------| 

                        
|---------------------| 
|---------------------| 
|-----------19-------| 
|--2--------19-------| 
|--2--------19-------| 
|--0--------19-------| 


  Chorus 
  RIFF Chorus                                                       
|------------------------|--------------------------| 
|------------------------|--------------------------| 
|--4----4----4--6--6--7--|----7--7--7--7--9--9--11--| 
|--4----4----4--6--6--7--|----7--7--7--7--9--9--11--| 
|--2----2----2--4--4--5--|----5--5--5--5--7--7--9---| 
|------------------------|--------------------------| 

                                                          
|------------------------------|-------------------------| 
|------------------------------|-------------------------| 
|----11--11--11--11--9--11--9--|----9--9--9--9--9--9--9--| 
|----11--11--11--11--9--11--9--|----9--9--9--9--9--9--9--| 
|----9---9---9---9---7--9---7--|----7--7--7--7--7--7--7--| 
|------------------------------|-------------------------| 

                                                                                 
|--------------------|----------------------|--------------------| 
|--------------------|----------------------|--------------------| 
|-7-7-7-7-7--7--7--7-|-9-9--9--9-9----------|--------------------| 
|-7-7-7-7-7--7--7--7-|-9-9--9--9-9--7--7--4-|-4--4-4--4--2--4--2-| 
|-5-5-5-5-5--5--5--5-|-7-7--7--7-7--7--7--4-|-4--4-4--4--2--4--2-| 
|--------------------|--------------5--5--2-|-2--2-2--2--0--2--0-| 

                                                                                 
|-----------------|----------------------|-----------------------| 
|-----------------|----------------------|-----------------------| 
|-----------------|-7-7--7--7--7-7--7--7-|-9--9-9--9--9----------| 
|2-2-2-2--2--2--2-|-7-7--7--7--7-7--7--7-|-9--9-9--9--9--7--7--4-| 
|2-2-2-2--2--2--2-|-5-5--5--5--5-5--5--5-|-7--7-7--7--7--7--7--4-| 
|0-0-0-0--0--0--0-|----------------------|---------------5--5--2-| 


  Bridge 
  BRIDGE        7x                                                 
|----------------||---------------------|-------------------------| 
|----------------||---------------------|-------------------------| 
|*--------------*||---------------------|-------------------------| 
|*--------------*||------------7--7--4--|----4--4--4--4--2--4--2--| 
|----------------||------------7--7--4--|----4--4--4--4--2--4--2--| 
|----------------||------------5--5--2--|----2--2--2--2--0--2--0--| 

                                                     3x 
|--------------------------|--------------------------|| 
|--------------------------|--------------------------|| 
|*-------------------------|-------------------------*|| 
|*----2--2--2--2--7--7--4--|----4--4--4--4--2--4--2--*|| 
|-----2--2--2--2--7--7--4--|----4--4--4--4--2--4--2---|| 
|-----0--0--0--0--5--5--2--|----2--2--2--2--0--2--0---|| 


                   Chorus End 
                   RIFF END                                                             
|---------------||------------------|------------------------| 
|---------------||------------------|------------------------| 
|---------------||*-4-4--4--6-6--7--|--7--7--7--7--9--9--11--| 
|-2-2-2-2-2-2-2-||*-4-4--4--6-6--7--|--7--7--7--7--9--9--11--| 
|-2-2-2-2-2-2-2-||--2-2--2--4-4--5--|--5--5--5--5--7--7--9---| 
|-0-0-0-0-0-0-0-||------------------|------------------------| 

                                                      
|------------------------------|-------------------------| 
|------------------------------|-------------------------| 
|----11--11--11--11--9--11--9--|----9--9--9--9--9--9--9--| 
|----11--11--11--11--9--11--9--|----9--9--9--9--9--9--9--| 
|----9---9---9---9---7--9---7--|----7--7--7--7--7--7--7--| 
|------------------------------|-------------------------| 

                                                                                 
|-------------------|---------------------|---------------------| 
|-------------------|---------------------|---------------------| 
|-7-7-7-7-7-7--7--7-|-9-9-9--9--9---------|---------------------| 
|-7-7-7-7-7-7--7--7-|-9-9-9--9--9-7--7--4-|-4--4--4--4-2--4--2--| 
|-5-5-5-5-5-5--5--5-|-7-7-7--7--7-7--7--4-|-4--4--4--4-2--4--2--| 
|-------------------|-------------5--5--2-|-2--2--2--2-0--2--0--| 

                             
|--------------------------|| 
|--------------------------|| 
|-------------------------*|| 
|----2--2--2--2--2--2--2--*|| 
|----2--2--2--2--2--2--2---|| 
|----0--0--0--0--0--0--0---|| 

                                                         
|---------------------------|--------------------------| 
|---------------------------|--------------------------| 
|*--7--7--7--7--7--7--7--7--|--9--9--9--9--9-----------| 
|*--7--7--7--7--7--7--7--7--|--9--9--9--9--9--7--7--4--| 
|---5--5--5--5--5--5--5--5--|--7--7--7--7--7--7--7--4--| 
|---------------------------|-----------------5--5--2--| 

                                                       
|-------------------------|--------------------------|| 
|-------------------------|--------------------------|| 
|-------------------------|-------------------------*|| 
|----4--4--4--4--2--4--2--|----2--2--2--2--2--2--2--*|| 
|----4--4--4--4--2--4--2--|----2--2--2--2--2--2--2---|| 
|----2--2--2--2--0--2--0--|----0--0--0--0--0--0--0---|| 

                                                                         
|--------------------------|--------------------------|--------|| 
|--------------------------|--------------------------|--------|| 
|--7--7--7--7--7--7--7--7--|--9--9--9--9--9-----------|--------|| 
|--7--7--7--7--7--7--7--7--|--9--9--9--9--9--7--7--4--|--------|| 
|--5--5--5--5--5--5--5--5--|--7--7--7--7--7--7--7--4--|--------|| 
|--------------------------|-----------------5--5--2--|--------|| 

RIFF INTRO 
                          
                                                                        
E||---------------------|--------------------|--------------------| 
B||---------------------|--------------------|--------------------| 
G||--7----6~---4-----7--|----6~-----4-----7--|----6~---4----------| 
D||---------------7-----|--------------7-----|--------------7--6--| 
A||---------------------|--------------------|--------------------| 
E||---------------------|--------------------|--------------------| 

                                                                      
|---------------------|--------------------|--------------------|| 
|---------------------|--------------------|--------------------|| 
|---------------------|--4--6~---4---------|--------------------|| 
|----7~-----4----7----|---------------7-6--|-4----2~---4/-6-4~-|| 
|---------------------|--------------------|--------------------|| 
|---------------------|--------------------|--------------------||RIFF Chorus                             
                   
                                                        
E||---------------------|--------------------|----------------------| 
B||---------------------|--------------------|----------------------| 
G||--7----6~---4-----7--|----6~-----4-----7--|------6~---4----------| 
D||---------------7-----|--------------7-----|----------------7--6--| 
A||---------------------|--------------------|----------------------| 
E||---------------------|--------------------|----------------------| 

                                                                       
|-----------------|-----------------------|-----------------------| 
|-----------------|-----------------------|-----------------------| 
|-----------------|--4--6~---4------------|-----------------------| 
|-7~----4----7----|---------------7----6--|----4----2~---4/-6-4~-| 
|-----------------|-----------------------|-----------------------| 
|-----------------|-----------------------|-----------------------| 

                                                                    
|------------------|--------------------|-----------------------| 
|------------------|--------------------|-----------------------| 
|------------------|--------------------|--4--6~---4------------| 
|---------2--4--2~-|----------4----7----|---------------7----6--| 
|------------------|--------------------|-----------------------| 
|------------------|--------------------|-----------------------| 

                          
|-----------------------|| 
|-----------------------|| 
|-----------------------|| 
|----4----2~---4/-6-4~-|| 
|-----------------------|| 
|-----------------------||RIFF END                             
                                         
                                  
E||-------------------|--------------------|----------------------| 
B||-------------------|--------------------|----------------------| 
G||--7--6~---4-----7--|----6~-----4-----7--|------6~---4----------| 
D||-------------7-----|--------------7-----|----------------7--6--| 
A||-------------------|--------------------|----------------------| 
E||-------------------|--------------------|----------------------| 

                                                                       
|-----------------|-----------------------|-----------------------| 
|-----------------|-----------------------|-----------------------| 
|-----------------|--4--6~---4------------|-----------------------| 
|--7~----4---7----|---------------7----6--|----4----2~---4/-6-4~-| 
|-----------------|-----------------------|-----------------------| 
|-----------------|-----------------------|-----------------------| 

                                                                  
|---------------------|------------------|-----------------------| 
|---------------------|------------------|-----------------------| 
|---------------------|------------------|--7----6~-----4-----7--| 
|------------2--4--2~-|------------------|-----------------7-----| 
|---------------------|------------------|-----------------------| 
|---------------------|------------------|-----------------------| 

                                                                     
|--------------------|----------------------|---------------------| 
|--------------------|----------------------|---------------------| 
|--6~-------4-----7--|------6~---4----------|---------------------| 
|--------------7-----|----------------7--6--|----7~-----4----7----| 
|--------------------|----------------------|---------------------| 
|--------------------|----------------------|---------------------| 

                                                                       
|--------------------|----------------------|---------------------| 
|--------------------|----------------------|---------------------| 
|-4--6~---4----------|----------------------|---------------------| 
|------------7----6--|---4----2~---4/-6-4~-|------------2--4--2~-| 
|--------------------|----------------------|---------------------| 
|--------------------|----------------------|---------------------| 

                                                                        
|-----------------|-----------------------|-----------------------| 
|-----------------|-----------------------|-----------------------| 
|*----------------|--4--6~---4------------|-----------------------| 
|*------4----7----|---------------7----6--|----4----2~---4/-6-4~-| 
|-----------------|-----------------------|-----------------------| 
|-----------------|-----------------------|-----------------------| 

                                                                      
|-------------------||--------------------|-----------------------| 
|-------------------||--------------------|-----------------------| 
|------------------*||--------------------|--4--6~---4------------| 
|---------2--4--2~-*||----------4----7----|---------------7----6--| 
|-------------------||--------------------|-----------------------| 
|-------------------||--------------------|-----------------------| 

                                             
|-----------------------|------------------|| 
|-----------------------|------------------|| 
|-----------------------|------------------|| 
|----4----2~---4/-6-4~-|------------------|| 
|-----------------------|------------------|| 
|-----------------------|------------------||KEYBOARD 


	    18x 
E||---2----|| 
B||--------|| 
G||*------*|| 
D||*------*|| 
A||--------|| 
E||--------||BRIDGE 


				  4X	 
E ||--16-|-14-|-12-|-------|| 
B ||-----|----|----|-------|| 
G ||*----|----|----|------*|| 
D ||*----|----|----|------*|| 
A ||-----|----|----|-------|| 
E ||-----|----|----|-------|| 
	  

Search Paypal
auto scroll beats size up size down change color hide chords drawings
tab show chords e-chords YouTube Clip e-chords hide all tabs e-chords go to top tab