HIM

home > HIM

Death In Love With Us Bass Tab

HIM

Difficulty: nolevelnolevel

by VELHO

tuner correct add songbook print version text version save to e-mail
chordsukulelecavacokeyboardtabbassdrumsharmonicsflute Guitar Pro
chords

Death In Love With Us

  		Intro 
  Q=142 
 4/4 
  Gtr I 
  H    Q.   E   +Q   Q.   E E E   +E  E E E E E E E 
|-------------|-----------------|-------------------| 
|-------------|-----------------|-------------------| 
|-----------2-|-(2)--2----2-4-5-|-(5)-5-5-5-5-5-7-9-| 
|-------------|-----------------|-------------------| 


  +E  E E E E E E E   +E  E E E E E E E   H    +E  E E E   H    +E  E  E E 
|-------------------|-------------------|----------------|------------------| 
|-------------------|-------------------|----------------|------------------| 
|-(9)-9-9-9-9-7-9-7-|-(7)-7-7-7-7-7-7-7-|-5----(5)-2h5-2s|=7----(7)-9-12-9--| 
|-------------------|-------------------|----------------|------------------| 


   Verse 1, 2 
    +E  E E E E E E E   E E E E E E E E   E E E E E E E E   E E E E E E E E 
||--------------------|-----------------|-----------------|-----------------| 
||o-------------------|-----------------|-----------------|-----------------| 
||o-(9)-9-9-9-9-9-9-9-|-7-7-7-7-7-7-7-7-|-9-9-9-9-9-9-9-9-|-7-7-7-7-7-7-7-7-| 
||--------------------|-----------------|-----------------|-----------------| 


  E E E E E E E E   E E E E E E E E   E E E E E E E E   E E E E E E +E  E 
|-----------------|-----------------|-----------------|--------------------| 
|-----------------|-----------------|-----------------|--------------------| 
|-5-5-5-5-5-5-5-5-|-2-2-2-2-2-2-2-2-|-0-0-0-0-0-0-0-0-|--------------------| 
|-----------------|-----------------|-----------------|-0-0-0-0-0-5-(5)-2--| 


  +E  E E E E E E E   +E  E E E E E +E  E 
|-------------------|---------------------| 
|-------------------|---------------------| 
|-------------------|---------------------| 
|-(2)-2-2-2-2-0-2-0-|-(0)-0-0-0-0-5-(5)-2-| 


  +E  E E E E E E E   +E  E E E E E +E   E 
|-------------------|-----------------------| 
|-------------------|-----------------------| 
|-------------------|-----------------------| 
|-(2)-2-2-2-2-0-2-0-|-(0)-0-0-0-0-5-(5)S10--| 


   +E   E  E  E  E E E E   +E  E E E E E E E   +H     Q.   E   +Q.   Q  Q   E 
|------------------------|-------------------|---------------|-----------------| 
|------------------------|-------------------|---------------|-----------------| 
|------------------------|-----------------0-|-(0)----0-----|--------------2--| 
|-(10)-10-10-10-10-9-9-7-|-(7)-7-7-7-7-7-7---|-------------0-|-(0)---2s=7-----| 


 Chorus 1, 2 
  +Q   Q.   E E E   +E  E E E E E E E   +E  E E E E E E E 
|-----------------|-------------------|-------------------| 
|-----------------|-------------------|-------------------| 
|-(2)--2----2-4-5-|-(5)-5-5-5-5-5-7-9-|-(9)-9-9-9-9-7-9-7-| 
|-----------------|-------------------|-------------------| 


  +E  E E E E E E E   H    +E  E E E 
|-------------------|-------------------| 
|-------------------|-------------------| 
|-(7)-7-7-7-7-7-7-7-|-5----(5)-2h5-2s===| 
|-------------------|-------------------| 


  H    +E   E  +E  E   +E  E E E E E E E   +E  E E E E E E E 
|--------------------|-------------------|-------------------| 
|--------------------|-------------------|-------------------| 
|-7----(7)-12-(12)-9-|-(9)-9-9-9-9-7-9-7-|-(7)-7-7-7-7-7-7-7-| 
|--------------------|-------------------|-------------------| 


  H    +E  E E E   H    +E   E  +E  E 
|----------------|-----------------------|| 
|----------------|----------------------o|| 
|-5----(5)-2h5-2s|=7----(7)-12-(12)-9---o|| 
|----------------|-----------------------|| 


 Breakdown 
  +E  E E E E E E E     E E E E E E E E 
|-------------------||------------------| 
|-------------------||o-----------------| 
|-(9)-9-9-9-9-9-9-9-||o-7-7-7-7-7-7-7-7-| 
|-------------------||------------------| 


  E E E E E E E E  3x E E E E E E +E  E 
|------------------||--------------------| 
|-----------------o||-----------7-(7)----| 
|-9-9-9-9-9-9-9-9-o||-7-7-7-7-7-------9--| 
|------------------||--------------------| 


  +E  E E E E E E E   +E  E E E E E +E  E 
|-------------------|---------------------| 
|-------------------|-------------7-(7)---| 
|-(9)-9-9-9-9-7-9-7-|-(7)-7-7-7-7-------9-| 
|-------------------|---------------------| 


  +E  E E E E E E E   +E  E E E E E +E  E 
|-------------------|----------------------| 
|-------------------|-------------7-(7)----| 
|-(9)-9-9-9-9-7-9-7-|-(7)-7-7-7-7-------9--| 
|-------------------|----------------------| 


  +E  E E E E E E E   +E  E E E E E +E  E 
|-------------------|---------------------| 
|-------------------|-------------7-(7)---| 
|-(9)-9-9-9-9-7-9-7-|-(7)-7-7-7-7-------9-| 
|-------------------|---------------------| 


  +E  E E E E E E E   +E  E E  H     E 
|-------------------|-------------------| 
|-------------------|-------------------| 
|-(9)-9-9-9-9-7-9-7-|-(7)-7-7--------2--| 
|-------------------|---------12-------| 


 Out-Chorus 
  +Q   Q.   E E E   +E  E E E E E E E   +E  E E E E E E E   +E  E E E E E E E 
|-----------------|-------------------|-------------------|--------------------| 
|-----------------|-------------------|-------------------|--------------------| 
|-(2)--2----2-4-5-|-(5)-5-5-5-5-5-7-9-|-(9)-9-9-9-9-7-9-7-|-(7)-7-7-7-7-7-7-7--| 
|-----------------|-------------------|-------------------|--------------------| 


  H    +E  E E E   H    +E  E  E E   +E  E E E E E E E   +E  E E E +E   Q  a E 
|----------------|-----------------|-------------------|-----------------------| 
|----------------|-----------------|-------------------|-----------------------| 
|-5----(5)-2h5-2s|=7----(7)-9-12-9-|-(9)-9-9-9-9-7-9-7-|-(7)-7-7-7-(7)S12s=x-2-| 
|----------------|-----------------|-------------------|-----------------------| 


  +Q   Q.   E E E   +E  E E E E E E E   +E  E E E E E E E   +E  E E E E E E E 
|-----------------|-------------------|-------------------|--------------------| 
|-----------------|-------------------|-------------------|--------------------| 
|-(2)--2----2-4-5-|-(5)-5-5-5-5-5-7-9-|-(9)-9-9-9-9-7-9-7-|-(7)-7-7-7-7-7-7-7--| 
|-----------------|-------------------|-------------------|--------------------| 


    H    +E  E E E   H    +E  E  E E   +E  E E E E E E E   +E  E E E E E E E  3x 
||-----------------|-----------------|-------------------|--------------------|| 
||o----------------|-----------------|-------------------|-------------------o|| 
||o-5----(5)-2h5-2s|=7----(7)-9-12-9-|-(9)-9-9-9-9-7-9-7-|-(7)-7-7-7-7-7-7-7-o|| 
||-----------------|-----------------|-------------------|--------------------|| 


  H    +E  E E E   H    +E  E  E E   +H.       Q    W 
|----------------|-----------------|--------------|------*| 
|----------------|-----------------|--------------|------*| 
|-5----(5)-2h5-2s|=7----(7)-9-12-9-|-(9)---------|------*| 
|----------------|-----------------|--------------|------*| 


Duration Legend 
--------------- 
W - whole; H - half; Q - quarter; E - 8th; S - 16th; T - 32nd; X - 64th; a - acciaccatura 
+ - note tied to previous; . - note dotted; .. - note double dotted 
Uncapitalized letters represent notes that are staccato (1/2 duration) 
Irregular groupings are notated above the duration line 
Duration letters will always appear directly above the note/fret number it represents the 
duration for.  Duration letters with no fret number below them represent rests.  Multi- 
bar rests are notated in the form Wxn, where n is the number of bars to rest for.  Low 
melody durations appear below the staff 

Tablature Legend 
---------------- 
 h   - hammer-on 
 p   - pull-off 
 b   - bend 
 pb  - pre-bend 
 r   - bend release (if no number after the r, then release immediately) 
 /  - slide into or out of (from/to "nowhere") 
 s   - legato slide 
 S   - shift slide 
  - natural harmonic 
{n}  - artificial harmonic 
n(n) - tapped harmonic 
 ~   - vibrato 
 tr  - trill 
 T   - tap 
 TP  - trem. picking 
 PM  - palm muting 
n/  - tremolo bar dip; n = amount to dip 
 n  - tremolo bar down 
 n/  - tremolo bar up 
/n  - tremolo bar inverted dip 
 =   - hold bend; also acts as connecting device for hammers/pulls 
 <>  - volume swell (louder/softer) 
 x   - on rhythm slash represents muted slash 
 o   - on rhythm slash represents single note slash 

Misc Legend 
----------- 
 |  - bar 
||  - double bar 
||o - repeat start 
o|| - repeat end 
*|  - double bar (ending) 
 :  - bar (freetime) 
 $  - Segno 
 &  - Coda 
Tempo markers -  = BPM(8/16=s8/s16), where s8 = swing 8ths, s16 = swing 16ths 
	  

Search Paypal
auto scroll beats size up size down change color hide chords drawings
tab show chords e-chords YouTube Clip e-chords hide all tabs e-chords go to top tab