HIM

home > HIM

Bleed Well Tab

HIM

Difficulty: nolevelnolevel

by deivcavalcanti

tuner correct add songbook print version text version save to e-mail
chordsukulelecavacokeyboardtabbassdrumsharmonicsflute Guitar Pro
chords

Bleed Well

  		

Intro: - Lead                                      (Rythym - - - - - ) 
e|---------------------------------------------------------------------------| 
B|---------------------------------------------------------------------------| 
G|---------------------------------------------------------------------------| 
D|-------------5h7-------------5\4------------5h7--5--4--5--7--5--7----------| 
A|--------5h7-------------5h7-------------5h7------3--2--3--5--3--5----------| 
E|--0--0------------0--0------------0--0-----------3--2--3--5--3--5----------| 

Intro: - rythym                                       
e|---------------------------------------------| 
B|---------------------------------------------| 
G|---------------------------------------------| 
D|---5--4--5--7--5--7--9--5 \ \ \ \ \ ---------| 
A|---3--2--3--5--3--5--7--3 \ \ \ \ \ ---------| 
E|---3--2--3--5--3--5--7--3 \ \ \ \ \ ---------| 


Verse - Rythym, Lead  
e|---------------------------------------------------------------------------| 
B|---------------------------------------------------------------------------| 
G|---------------------------------------------------------------------------| 
D|---------------------------------------------------------------------------| 
A|--55555555--5555--5555--22222222--2222--5555-------------------------------| 
E|--33333333--3333--2222--00000000--0000--2222-------------------------------| 
pm............................................ 


Bridge - Lead 
e|---------------------------------------------------------------------------| 
B|---------------------------------------------------------------------------| 
G|---------------------------------------------------------------------------| 
D|--5--5555--7--7777--4--4444--5-xxxx----------------------------------------| 
A|--3--3333--5--5555--2--2222--3-xxxx----------------------------------------| 
E|---------------------------------------------------------------------------| 


Chorus - both Guitars 
e|---------------------------------------------------------------------------| 
B|---------------------------------------------------------------------------| 
G|---------------------------------------------------------------------------| 
D|------------22222222------------------------------------55555555--77777777-| 
A|--22222222--00000000--44444444--55--5--44--4--22222222--33333333--55555555-| 
E|--00000000------------22222222--33--3--22--2--00000000---------------------| 
                                  ..     .. 

Random Part - Rythym ; Lead 
e|---------------------------------------------------------------------------| 
B|---------------------------------------------------------------------------| 
G|---------------------------------------------------------------------------| 
D|---------------------------------------------------------------------------| 
A|--0--2-----0---------------------------------------------------------------| 
E|--------3------------------------------------------------------------------| 
  

Pre Solo - Rythym Guitar                                   (played on keyboard) 
e|---------------------------------------------(------------------)----------| 
B|---------------------------------------------(------------------)----------| 
G|---------------------------------------------(------------------)----------| 
D|-7-9-------------------------------------7---(----------5--4----)----------| 
A|-5-7-------------------------------------5---(-0--2-3-0------3--)----------| 
E|-----7h8p7--0-5h7p5--0-3h5p3--0-2h3p2-0------(------------------)----------| 

e|-------------------------------------------------------------------------------| 
B|-------------------------------------------------------------------------------| 
G|-------------------------------------------------------------------------------| 
D|---------------------------------------7-9-------------------------------------| 
A|-2-------------------------------------5-7-------------------------------------| 
E|-0--7h8p7--0-5h7p5--0-3h5p3--0-2h3p2-0------7h8p7--0-5h7p5--0-3h5p3--0-2h3p2-0-| 
       
      (        played on keyboard      ) 
e|----(--------------------------------)---------------------------------------| 
B|----(--------------------------------)---------------------------------------| 
G|----(--------------------------------)---------------------------------------| 
D|-7--(---------5--4-------------------)---------------------------------------| 
A|-5--(0--2-3-0-------3---0--2-3-0-----)---------------------------------------| 
E|----(----------------------------3-2-)---------------------------------------| 



Guitar Solo - Lead:                          /\ 
e|---------------------------------12-----14/--\~~~12------------------------| 
B|------/~~~~~\---12-15b~~~--12-15----12--------------12-15-12----15-12------| 
G|-14br/-------\-----------------------------------------------14-------14---| 
D|---------------------------------------------------------------------------| 
A|---------------------------------------------------------------------------| 
E|---------------------------------------------------------------------------| 

e|-------------------12----12----12--------12--------/~~~--------------------| 
B|-12----------12-15----15----15-----12-15----15-15b/------------------------| 
G|----12---------------------------------------------------------------------| 
D|-------14------------------------------------------------------------------| 
A|---------------------------------------------------------------------------| 
E|---------------------------------------------------------------------------| 

e|-12-14-15-14-15-14-----12-14-15-14-12-----12-14-15-14-12-------------------| 
B|-------------------15-----------------15-----------------15----------------| 
G|---------------------------------------------------------------------------| 
D|---------------------------------------------------------------------------| 
A|---------------------------------------------------------------------------| 
E|---------------------------------------------------------------------------| 

e|12-14-15-14-12-----12-14-15-14-12-----12-14-15-14-12-----12-14-15-14-12----| 
B|---------------15-----------------15-----------------15-----------------15-| 
G|---------------------------------------------------------------------------| 
D|---------------------------------------------------------------------------| 
A|---------------------------------------------------------------------------| 
E|---------------------------------------------------------------------------| 

e|-14-15-17-15-14-----14-15-19-15-14-----14-15-17-15-14-----12-14-15-14-12---| 
B|----------------17-----------------17-----------------15-----------------15| 
G|---------------------------------------------------------------------------| 
D|---------------------------------------------------------------------------| 
A|---------------------------------------------------------------------------| 
E|---------------------------------------------------------------------------| 


Post solo                                                        (       *     ) 
e|-12-15-12----12----------------------------------------------(-------------)| 
B|----------15----15-12----15-12----12------------/\/~~~~~-----(-------------)| 
G|----------------------14-------14----12-----14b/-------------(-------------)| 
D|----------------------------------------14-------------------(-9-----------)| 
A|-------------------------------------------------------------(---11--------)| 
E|-------------------------------------------------------------(-------------)| 


SOLO rythym Part -  
e|-----------------------------------------------------------------------| 
B|-----------------------------------------------------------------------| 
G|-----------------------------------------------------------------------| 
D|-----------------------------------------------------------------------| 
A|-----------------2-----------------2-----------------2-----------------| 
D|-4h5p4p0-4h5p4p0-2-4h5p4p0-4h5p4p0-2-4h5p4p0-4h5p4p0-2-----------------| 

e|-----------------------------------------------------------------------| 
B|-----------------------------------------------------------------------| 
G|-----------------------------------------------------------------------| 
D|-----------------------------------------------------------------------| 
A|---------------0-2-----------------------------------------------------| 
D|-4h5p4p0-0h2p0-0-2-----------------------------------------------------| 

e|-----------------------------------------------------------------------| 
B|-----------------------------------------------------------------------| 
G|-----------------------------------------------------------------------| 
D|-----------------------------------------------------------------------| 
A|-----------------2-----------------2-----------------2-----------------| 
D|-4h5p4p0-4h5p4p0-2-4h5p4p0-4h5p4p0-2-4h5p4p0-4h5p4p0-2-----------------| 

e|-----------------------------------------------------------------------| 
B|-----------------------------------------------------------------------| 
G|-----------------------------------------------------------------------| 
D|-----------------------------------------------------------------------| 
A|---------------0-5-----------------------------------------------------| 
D|-4h5p4p0-0h2p0-0-5----7(bend-it)---------------------------------------| 


Outro - both guitars - low octave - lead lowest octave 
e|-----------------------------------------------------------------------| 
B|-----------------------------------------------------------------------| 
G|-----------------------------------------------------------------------| 
D|-444-4-4-4-------------------------------------------------------------| 
A|-222-2-2-2---------------\---------------------------------------------| 
D|--------------pick-slide-\---------------------------------------------| 


Tablature Legend 
---------------- 
L - tied note 
x - dead note 
g - grace note 
(n) - ghost note 
> - accentuded note 
NH - natural harmonic 
AH - artificial harmonic 
TH - tapped harmonic 
SH - semi harmonic 
PH - pitch harmonic 
h - hammer on 
p - pull off 
b - bend 
br - bendRelease 
pb - preBend 
pbr - preBendRelease 
brb - bendReleaseBend 
\n/ - tremolo bar dip 
\n - tremolo bar dive 
-/n - tremolo bar Release up 
/n\ - tremolo bar inverted dip 
/n - tremolo bar return 
-\n - tremolo bar Release down 
S - shift slide 
s - legato slide 
/ -  slide into from below or out of upwards 
\ -  slide into from above or out of downwards 
~ - vibrato 
W - wide vibrato 
tr - tril' 
TP - tremolo picking 
T - tapping 
S - slap 
P - pop 
< - fade in 
^ - brush up 
v - brush down 
	  

Search Paypal
auto scroll beats size up size down change color hide chords drawings
tab show chords e-chords YouTube Clip e-chords hide all tabs e-chords go to top tab