HIM

home > HIM

Bleed Well Bass Tab

HIM

Difficulty: nolevelnolevel

by deivcavalcanti

tuner correct add songbook print version text version save to e-mail
chordsukulelecavacokeyboardtabbassdrumsharmonicsflute Guitar Pro
chords

Bleed Well

  		


At about 0:06 

G|---------------------------------------------------------------------------| 
D|---------------------------------------------------------------------------| 
A|---------------------------------------------------------------------------| 
E|----3--2--3----5--3--5-----------------------------------------------------| 


Intro:  

G|---------------------------------------------------------------------------| 
D|--------------------------------------------5--7---------------------------| 
A|-------------------------------------5--7----------------------------------| 
E|--0-0-0-0-0-0-0-0-0-0-0-0-0-0-0-----------------------3--2--3----5--3--5---|   2X 



Verse: (guitar starts) 


G|---------------------------------------------------------------------------| 
D|---------------------------------------------------------------------------| 
A|---------------------------------------------------------------------------| 
E|--0-0-0-0-0-0-0-0-0-0-0-2-2-2-2-3-3-3-3-3-3-3-3-3-3-3----------------------| 

G|---------------------------------------------------------------------------| 
D|---------------------------------------------------------------------------| 
A|---------------------------------------------------------------------------| 
E|-2-2-2-2-0-0-0-0-0-0-0-0-0-0-0-0-------------------------------------------| 


Pre-Chorus: 



G|---------------------------------------------------------------------------| 
D|---------------------------------------------------------------------------| 
A|---3-3-3-3-3-3---5-5-5-5-5-5--2-2-2-2-2-2--3-------------------------------| 
E|---------------------------------------------------------------------------| 2X 



Chorus: 


G|---------------------------------------------------------------------------| 
D|---------------------------------------------------------------------------| 
A|------------------0-0-0-0-0-0-0-0-0-0-0-0-0-0-0-0--------------------------| 
E|--0-0-0-0-0-0-0-0----------------------------------x-x-3-x-x-2-------------| 

G|---------------------------------------------------------------------------| 
D|---------------------------------------------------------------------------| 
A|------------------0-0-0-0-0-0-0-0-5-5-5-5-5-5-5-5----------0--2-----0------| 
E|--0-0-0-0-0-0-0-0------------------------------------------------3---------|   2X 





Bridge: (during yell) 

G|---------------------------------------------------------------------------| 
D|---------------------------------------------------------------------------| 
A|---------------------------------------------------------------------------| 
E|--0--7h8p7--0--5h7p5--0--3h5p3--0--2h3p2----0------------------------------| 





Pre Solo: 
G|---------------------------------------------------------------------------| 
D|--------------------2-2-2-2----4-4-4-4-------------------------------------| 
A|---------------------------------------------------------------------------| 
E|--0-0-0-0-0-0-0-0------------------------0-0-0-0-0-0-0-0-------------------| 


Solo: 
G|---------------------------------------------------------------------------| 
D|---------------------------------------------------------------------------| 
A|---------------------------------------------------------------------------|     
E|--0--7h8p7--0--5h7p5------3--5-repeat---(5)---(3)--------------------------|     () second time 
 
	  

Search Paypal
auto scroll beats size up size down change color hide chords drawings
tab show chords e-chords YouTube Clip e-chords hide all tabs e-chords go to top tab