Heart

home > Heart

Sing Child Tab

Heart

Difficulty: nolevelnolevel

by alexribeiro

tuner correct add songbook print version text version save to e-mail
chordsukulelecavacokeyboardtabbassdrumsharmonicsflute Guitar Pro
chords

Sing Child

  		E|------------------------------------------------| 
B|------------------------------------------------| 
G|-------5--------7--------8--------7---------5---| 
D|-------5--------7--------8--------7---------5---| 
A|-------3--------5--------6--------5---------3---| 
E|--3h5-----3h5-------3h5------3h5------3h5-------| 

E|-------------------------------------| 
B|-------------------------------------| 
G|------5v-------7v-------8v-----7---5-| 
D|------5v-------7v-------8v-----7---5-| 
A|-------------------------------------| 
E|--3h5------3h5------3h5-----3h5-3h5--| 

E|--6--5--| 
B|--6--5--| 
G|--6--5--| 
D|--6--5--| 
A|--------| 
E|--------| 

 (“he gonna breakdown and sing”)x4 
E|--------------------------------------------------| 
B|--------------------------------------------------| 
G|-------------------5b-----------------------------| 
D|--7p5----------------7----------7p5----------5-7--| 
A|-------7-5---3----------------------7-5------5-7--| 
E|----------------------------------------5p3--3-5--| 

(flute solo - Ann Wilson) 
(guitar solo - Roger Fisher) 

Sing child sing 
Sing child sing 

Melody maker 
Giver and taker 
Heartbreaker 
He want to sing 
I know I know I know I know 
Try it again 
Sooner or later 
He gonna breakdown and sing 

Holy junkie 
Funky monkey 
Everybody calls him honey 
He don’t want to play that game 
He gotta play that game 
Oh, honey, honey, honey 
You got to come down and sing 

Dreamer 
Machiner 
What will you ever do when you blow a fuse 
Don’t want to stay here 
Honey roll 
Sooner or later 
You’ve gotta get down and sing 

Sing child 
	  

Search Paypal
auto scroll beats size up size down change color hide chords drawings
tab show chords e-chords YouTube Clip e-chords hide all tabs e-chords go to top tab