Heart

home > Heart

Crazy On You(intro) Tab

Heart

Difficulty: AdvancedAdvanced

by Jiimii

tuner correct add songbook print version text version save to e-mail
chordsukulelecavacokeyboardtabbassdrumsharmonicsflute Guitar Pro
chords

Crazy On You(intro)

  		 
opening chords:Am, F, Am, F 
 
 
e|-------------------------------------------------| 
b|-------------------------------------------------| 
d|-------------------------------------------------| 
g|-------2-0---------------------------------------| 
a|---0---------3-2-0-------------------------------| 
e|-3-------------------1---------------------------| repeat 2 
 
e|-------------------------------------------------| 
b|-------------------------------------------------| 
d|-------------------------------------------------| 
g|-------2-0----------------2-0--------------------| 
a|---0----------3-2-0--------------3-2-0-----------| 
e|-3--------------------3------------------1-------| 
 
e|-------------------------------------------------| 
b|-------------------------------------------------| 
d|-------------------------------------------------| 
g|--2-0--------------------------------------------| 
a|--------3-2--------------------------------------| 
e|--------------3----------------------------------| 
 
after the intro, play these chords: Am, C, D, F, Am, E, Am, E, 
at about the same pace as the song "House of the Rising Son" 
 
 
*KEEP CLASSIC ROCK ALIVE!!!* 

	  

Full key step upFull key step up
Half key step upHalf key step up
Half key step downHalf key step down
Full key step downFull key step down
Search Paypal
auto scroll beats size up size down change color hide chords drawings
tab show chords e-chords YouTube Clip e-chords hide all tabs e-chords go to top tab