Hawk Nelson

Right Here

Hawk Nelson

tabs Expert expert

by  FALLING UP

save to print version add songbook text version e-mail correct tuner
chordsukulelecavacokeyboardtabbassdrumsharmonicaflute Guitar Pro
close

there isn't a video lesson for this song

chords

Right Here

Year: 2005 - Album: Letters to the President

	  		intro part 1  Gt 1 
|------------------------| 
|------------------------| 
|----------------------3-| 
|---6-6-6-8-6-8--1-1-1-3-| 
|---6-6-6---6----1-1-1-1-| 
|---6-6-6---6--0-1-1-1---| 
 
Gt 2 
|------------------------| 
|------------------------| 
|----------------------6-| 
|----------------------6-| 
|----------------------4-| 
|------------------------| 
 
intro part 2 both guitars x2 
|--------------------------| 
|--------------------------| 
|----------------------333-| 
|---6-6-6-8-6-8--1-1-1-333-| 
|---6-6-6---6----1-1-1-111-| 
|---6-6-6---6--0-1-1-1-----| 
 
verse 1 space out some of the notes for timing listen to get the rythmn right 
Gt. 1 x2 
|----4-----4-----4-----4----| 
|--4---4-4---4-4---4-4---4--| 
|---------------------------| 
|---------------------------| 
|---------------------------| 
|---------------------------| 
 
Gt. 2 x2 
|--------------| 
|--------------| 
|----3h5---1h3-| 
|--6-----1-----| 
|--------------| 
|--------------| 
 
then it is just bass 
then play the preChorus like this 
just gt.1 
|------------------------------------------------------| 
|-----------1-------2-2----------------1---------------| 
|-------3-----1---------1----------3-----1--6-----9----| 
|-----1--------------------------1----------6-----9----| 
|---------------4-4-------4-----------------4-----7----| 
|---1-----3--------------------1-----3-----------------| 
 
Chorus 1 
gt. 1 x2 
|--------------------------------| 
|--------------------------------| 
|--------------3-------------3---| 
|---666-8--111----666-8--111-----| 
|---666----111----666----111-----| 
|---666----111----666----111-----| 
 
gt.2  
|-----------------------------------------------------------| 
|-----------------------------------------------------------| 
|-----------------------------------------------------------| 
|---666666--111111--666666--111111--666666-5-333333-111111--| 
|---666666--111111--666666--111111--666666-5-333333-111111--| 
|---666666--111111--666666--111111--666666-5-333333-111111--| 
 
verse 2  
gt. 1 keep strumming this riff for a while 
|----444---| 
|----444---| 
|----111---| 
|----------| 
|----------| 
|----------| 
 
gt.2 listen to song and match with gt. 1   x4 
|------------------------------------| 
|------------------------------------| 
|---111-111-333-333------------------| 
|-------------------333-333-111-111--| 
|------------------------------------| 
|------------------------------------| 
 
verse 2 part 2 
both guitars x4 
|-----44444444444444/6666\-| 
|-----44444444444444/6666\-| 
|-----11111111111111/3333\-| 
|--------------------------| 
|--------------------------| 
|--------------------------| 
 
preChorus 
gt. 1 only 
|----------------------------------------------| 
|----------------------------------------------| 
|-----------6-------------6-6------------------| 
|---1---3---6-----1---3---6-6-1-1-3-3-5-55-6---| 
|---1---3---4-----1---3---4-4-1-1-3-3-5-55-6---| 
|---1---3---------1---3-------1-1-3-3-5-55-6---| 
 
Chorus 2 is same as the 1st Chorus 
bridge part 1 is same as verse 1 
bridge 2 
both guitars 
|-------------------------------------------------| 
|-------------------------------------------------| 
|----------------------666666666---------------6--| 
|-----6666666-11111111-666666666-66666666--11--6--| 
|-----6666666-11111111-444444444-66666666--11--4--| 
|-----6666666-11111111-----------66666666--11-----| 
      ******* ******** ********* ********  **  
bridge 3 x2 
|-------------------------------------------------| 
|-------------------------------------------------| 
|----------------------666666666---------------6--| 
|-----6666666-11111111-666666666-66666666--11--6--| 
|-----6666666-11111111-444444444-66666666--11--4--| 
|-----6666666-11111111-----------66666666--11-----| 
 
Chorus 3 
gt.1 
|-----------------------------------------------------| 
|-----------------------------------------------------| 
|--------------3-----------3--------------------------| 
|---666-8--111--666-8--111---666-8--888-11-101010-11~-| 
|---666----111--666----111---666----888----101010-11~-| 
|---666----111--666----111---666----888----101010-11~-| 
                                             * * 
gt.2 
|-----------------------------------------------------------| 
|-----------------------------------------------------------| 
|-----------------------------------------------------------| 
|---6666666-1111111-666666-1111111-66666-888888-10-1010-11~-| 
|---6666666-1111111-666666-1111111-66666-888888-10-1010-11~-| 
|---6666666-1111111-666666-1111111-66666-888888-10-1010-11~-| 
 
 

		  

See also:

tabs Fall Out Boy - Beat It tabs Bad Religion - American Jesus tabs Afi - Miss murder tabs Green Day - Holiday ( Easy Version) tabs Green Day - Time of your life (good ridance) tabs Blink 182 - Stay together for the kids (ver. 2)
e-chords

Other versions:

tabs Hawk Nelson - Right Here tabs Chad Sugg - Right Here tabs Miley Cyrus - Right Here tabs HIM - Right Here In My Arms tabs Richard Marx - Right here waiting tabs Staind - Right Here Waiting
auto scroll beats size up size down change color hide chords drawings
tab show chords e-chords YouTube Clip e-chords hide all tabs e-chords go to top tab

share