Guns N' Roses

home > Guns N' Roses

Madagascar Tab

Guns N' Roses

Difficulty: IntermediateIntermediate

by buckethead2006

tuner correct add songbook print version text version save to e-mail
chordsukulelecavacokeyboardtabbassdrumsharmonicsflute Guitar Pro
chords

Madagascar

  		essa e a itro do teclado,passado para guitarra 
 
e------------------------------------------------------- 
b------------------------------------------------------- 
g----------7-9-9---------------------7-9-9-12----------- 
D-10-10-10------10-10-9p10--10-10-10----------10-12p9--- 
A------------------------------------------------------- 
E 
 
e------------------------------------------------------- 
B------------------------------------------------------- 
G----------7-9-9----------------------------------------- 
D-10-10-10-------10-10-9p10~--10-9-9-7p5-7/9-7-7--9p10-7 
A------------------------------------------------------- 
E------------------------------------------------------- 

	  

Search Paypal
auto scroll beats size up size down change color hide chords drawings
tab show chords e-chords YouTube Clip e-chords hide all tabs e-chords go to top tab