Guns N' Roses

home > Guns N' Roses

Going Down Tab

Guns N' Roses

Difficulty: nolevelnolevel

by brunblazkowski

tuner correct add songbook print version text version save to e-mail
chordsukulelecavacokeyboardtabbassdrumsharmonicsflute Guitar Pro
chords

Going Down

  		

0:01-0:19 

B  B  F# F# 
G# G# G# F# 
C# C# 


0:20-0:58 

B B F# F# 

G# F# G# F# 

C# C# 

B B F# F# 

G# F# G# B 

F# C# 


0:59-1:07 
To those of you who noticed something weird going on during this part: Stig says this 
part is two measures of 4, a measure of 2, two more measures of 4, and then another 
measure of 2 

D# C# B A# B 

D# C# B A# B 

1:08-1:12 
D#    C#   B 


1:13-1:36 
--------------------------------------------------------------------| 
--------------------------------------------------------------------| 
----------------x-6-6-(6)-6-7-8------------4--4-x-x-----x-x---------| 
--4-4--x-x--4-4-x-6-6-(6)-6-7-8------------4--4-x-x-----x-x---------| 
--4-4--x-x--4-4-x-4-4-(4)-4-5-6------------2--2-x-x--2--x-x---------| 
--2-2--x-x--2-2------------------4b5-4b5r2------------------5v------| 

--------------------------------------------------------------------| 
----------------------------------------------------0---------------| 
----------------x-6-6-(6)-6-7-8------------4--4-x-x---3-2v----------| 
--4-4--x-x--4-4-x-6-6-(6)-6-7-8------------4--4-x-x-----------------| 
--4-4--x-x--4-4-x-4-4-(4)-4-5-6------------2--2-x-x-----------------| 
--2-2--x-x--2-2------------------4b5-4b5r2--------------------------| 


--------------------------------------------------------------------| 
-------------------------------------------4v-4v-2v-4-4v-2h4p2------| 
----------------x-6-6-(6)-6-7-8------------4v-4v-2v-4-4v-2h4p2------| 
--4-4--x-x--4-4-x-6-6-(6)-6-7-8--------------------------------4----| 
--4-4--x-x--4-4-x-4-4-(4)-4-5-6-------------------------------------| 
--2-2--x-x--2-2------------------4b5--4-4---------------------------| 


1:40 - 2:17 

B B F# F# 

G# F# G# F# 

C# C# 

B B F# F# 

G# F# G# F# 


2:17 - 2:28 
Same deal as before, rhythmically 

D# C# B A# B 

D# C# B A# B 


2:28-2:31 
D#    C#   B 


2:32 - 3:11 
--------------------------------------------------------------------| 
--------------------------------------------------------------------| 
----------------x-6-6-(6)-6-7-8------------4--4-x-x-----x-x---------| 
--4-4--x-x--4-4-x-6-6-(6)-6-7-8------------4--4-x-x-----x-x---------| 
--4-4--x-x--4-4-x-4-4-(4)-4-5-6------------2--2-x-x--2--x-x---------| 
--2-2--x-x--2-2------------------4b5-4b5r2------------------5v------| 


--------------------------------------------------------------------| 
----------------------------------------------------0---------------| 
----------------x-6-6-(6)-6-7-8------------4--4-x-x---3-2v----------| 
--4-4--x-x--4-4-x-6-6-(6)-6-7-8------------4--4-x-x-----------------| 
--4-4--x-x--4-4-x-4-4-(4)-4-5-6------------2--2-x-x-----------------| 
--2-2--x-x--2-2------------------4b5-4b5r2--------------------------| 


-------------------------------------------------5------------------| 
-------------------------------------------------4b-2-4p2-x-x-4-2---| 
----------------x-6-6-(6)-6-7-8---------------------2-4p2-x-x-4-2---| 
--4-4--x-x--4-4-x-6-6-(6)-6-7-8--6-6-6-6-6-6-6-6------------------4-| 
--4-4--x-x--4-4-x-4-4-(4)-4-5-6--6-6-6-6-6-6-6-6--------------------| 
--2-2--x-x--2-2------------------4-4-4-4-4-4-4-4--------------------| 


--------------------------------------------------------------------| 
----------------------------------------------4p2-x-x-2-x-x-2-------| 
----------------x-6-6-(6)-6-7-8------------4--4p2-x-x-2-x-x-2-------| 
--4-4--x-x--4-4-x-6-6-(6)-6-7-8------------4------------------------| 
--4-4--x-x--4-4-x-4-4-(4)-4-5-6------------2------------------------| 
--2-2--x-x--2-2------------------4b5-4b5r2--------------------------| 


-------------------------------------------------------------------| 
--------------------------------------------------4v-4v-2----------| 
----------------x-6-6-(6)-6-7-8-------------------4v-4v-2----------| 
--4-4--x-x--4-4-x-6-6-(6)-6-7-8--6-6-6-6-6-6-6-6----------4--------| 
--4-4--x-x--4-4-x-4-4-(4)-4-5-6--6-6-6-6-6-6-6-6-------------------| 
--2-2--x-x--2-2------------------4-4-4-4-4-4-4-4-------------------| 

3:12 - 3:25 
Solo 

3:26 - End (soloing over this) 
--------------------------------------------------------------------| 
--------------------------------------------------------------------| 
----------------x-6-6-(6)-6-7-8------------4--4-x-x-----x-x---------| 
--4-4--x-x--4-4-x-6-6-(6)-6-7-8------------4--4-x-x-----x-x---------| 
--4-4--x-x--4-4-x-4-4-(4)-4-5-6------------2--2-x-x--2--x-x---------| 
--2-2--x-x--2-2------------------4b5-4b5r2------------------5v------| 


--------------------------------------------------------------------| 
----------------------------------------------------0---------------| 
----------------x-6-6-(6)-6-7-8------------4--4-x-x---3-2v----------| 
--4-4--x-x--4-4-x-6-6-(6)-6-7-8------------4--4-x-x-----------------| 
--4-4--x-x--4-4-x-4-4-(4)-4-5-6------------2--2-x-x-----------------| 
--2-2--x-x--2-2------------------4b5-4b5r2--------------------------| 


--------------------------------------------------------------------| 
--------------------------------------------------4b5r4-2h4p2-------| 
----------------x-6-6-(6)-6-7-8-------------------4b5r4-2h4p2-------| 
--4-4--x-x--4-4-x-6-6-(6)-6-7-8--6-6-6-6-6-6-6-6--------------4p2h4-| 
--4-4--x-x--4-4-x-4-4-(4)-4-5-6--6-6-6-6-6-6-6-6--------------------| 
--2-2--x-x--2-2------------------4-4-4-4-4-4-4-4--------------------| 


---------------------------------------------------------------------| 
----------------------------------------------------4b5r4-2h4p2------| 
----------------x-6-6-(6)-6-7-8------------4--4-x-x-4b5r4-2h4p2------| 
--4-4--x-x--4-4-x-6-6-(6)-6-7-8------------4--4-x-x------------4p2h4-| 
--4-4--x-x--4-4-x-4-4-(4)-4-5-6------------2--2-x-x------------------| 
--2-2--x-x--2-2------------------4b5-4b5r2---------------------------| 


--------------------------------------------------------------------| 
------------------------------------------------14-x-x-14-14--------| 
----------------x-6-6-(6)-6-7-8------------4----14-x-x-14-14--------| 
--4-4--x-x--4-4-x-6-6-(6)-6-7-8------------4-16--------------14h16--| 
--4-4--x-x--4-4-x-4-4-(4)-4-5-6------------2------------------------| 
--2-2--x-x--2-2------------------4b5-4b5r2--------------------------| 

--------------------------------------------------------------------| 
--------------------------------------------------------------------| 
----------------x-6-6-(6)-6-7-8------------4--4-x-x-----x-x---------| 
--4-4--x-x--4-4-x-6-6-(6)-6-7-8------------4--4-x-x-----x-x---------| 
--4-4--x-x--4-4-x-4-4-(4)-4-5-6------------2--2-x-x-<2>-x-x---------| 
--2-2--x-x--2-2------------------4b5-4b5r2------------------5v------| 

--------------------------------------------------------------------| 
---------------------------------------------------------------2----| 
----------------x-6-6-(6)-6-7-8------------4--4-x-x-----x-x----3----| 
--4-4--x-x--4-4-x-6-6-(6)-6-7-8------------4--4-x-x-----x-x----3----| 
--4-4--x-x--4-4-x-4-4-(4)-4-5-6------------2--2-x-x-<2>-x-x----1----| 
--2-2--x-x--2-2------------------4b5-4b5r2------------------5v------| 
	  

Full key step upFull key step up
Half key step upHalf key step up
Half key step downHalf key step down
Full key step downFull key step down
Search Paypal
auto scroll beats size up size down change color hide chords drawings
tab show chords e-chords YouTube Clip e-chords hide all tabs e-chords go to top tab