Green Day

Do Da Da

Green Day

tabs

by  META11EIR0

save to print version add songbook text version e-mail correct tuner
chordsukulelecavacokeyboardtabbassdrumsharmonicaflute Guitar Pro
close

there isn't a video lesson for this song

chords

Do Da Da

Year: 2002 - Album: Shenanigans

	  		Intro:  
E---4------------------------------------------------------------------------  
A---6----6---3-----------------4----6---------------------------------------- 
D--------8---------------------6----8---------------------------------------- 
G---------------------------------------------------------------------------- 
B---------------------------------------------------------------------------- 
e---------------------------------------------------------------------------- 
 
 
Verso 
E---4--------------4--------------------------------------------------------- 
A---6----6----4---6---6-------2---2------------------------------------------ 
D--------8----6--------8----------------------------------------------------- 
G---------------------------------------------------------------------------- 
B---------------------------------------------------------------------------- 
e---------------------------------------------------------------------------- 
 
Refrao 
E---1----4----1----4---------------------------------------4-------------------- 
A---3----6----3----6----6----2----2----------------------6---6------------------ 
D------------------------8--------------------------------------8---8---8 ------ 
G------------------------------------------------------------------------------- 
B------------------------------------------------------------------------------- 
e------------------------------------------------------------------------------- 
 
Solo: 
E---4--------------4-------------------------------------------------------- 
A---6----6----4---6---6-------2---2----------------------------------------- 
D--------8----6--------8---------------------------------------------------- 
G--------------------------------------------------------------------------- 
B--------------------------------------------------------------------------- 
e--------------------------------------------------------------------------- 
 
Por favor me desculpem e me corrijam se eu estiver errado  %) 
		  

auto scroll beats size up size down change color hide chords drawings
tab show chords e-chords YouTube Clip e-chords hide all tabs e-chords go to top tab

share