Green Day

home > Green Day

Basket Case Tab

Green Day

Difficulty: BeginnerBeginner

by HOCKER

tuner correct add songbook print version text version save to e-mail
chordsukulelecavacokeyboardtabbassdrummharmonicsflute Guitar Pro
chords

Basket Case

Year: 1994 - Album: Dookie

  		E----------------------------------------------------------------- 
B----------------------------------------------------------------- 
G-7-7-7-7---------4-4-4-4-----------------7-7-7-7----------------- 
D-7-7-7-7-7-7-7-7-4-4-4-4-4-4-4-4-5-5-5-5-7-7-7-7-7-7-7-7-7-7-7-7- 
A-5-5-5-5-7-7-7-7-2-2-2-2-4-4-4-4-5-5-5-5-5-5-5-5-7-7-7-7-7-7-7-7- 
E---------5-5-5-5---------2-2-2-2-3-3-3-3---------5-5-5-5-5-5-5-5- 
 
E----------------------------------------------------------------- 
B----------------------------------------------------------------- 
G-7-7-7-7---------4-4-4-4-----------------7-7-7-7----------------- 
D-7-7-7-7-7-7-7-7-4-4-4-4-4-4-4-4-5-5-5-5-7-7-7-7-7-7-7-7-7-7-7-7- 
A-5-5-5-5-7-7-7-7-2-2-2-2-4-4-4-4-5-5-5-5-5-5-5-5-7-7-7-7-7-7-7-7- 
E---------5-5-5-5---------2-2-2-2-3-3-3-3---------5-5-5-5-5-5-5-5- 
 
refrão: 
 
E------------------------- 
B------------------------- 
G-----------------7-7-7-7- 
D-5-5-5-5-7-7-7-7-7-7-7-7- 
A-5-5-5-5-7-7-7-7-5-5-5-5- 
E-3-3-3-3-5-5-5-5--------- 
 
E------------------------- 
B------------------------- 
G-----------------7-7-7-7- 
D-5-5-5-5-7-7-7-7-7-7-7-7- 
A-5-5-5-5-7-7-7-7-5-5-5-5- 
E-3-3-3-3-5-5-5-5--------- 
 
 
E------------------------------------------------ 
B------------------------------------------------ 
G-----------------7-7-6-6-4--4-4-------------7-7- 
D-5-5-5-5-7-7-7-7-7-7-6-6-4--4-4-5-5-5-7-7-7-7-7- 
A-5-5-5-5-7-7-7-7-5-5-4-4-2--2-2-5-5-5-7-7-7-5-5- 
E-3-3-3-3-5-5-5-5----------------3-3-3-5-5-5----- 
 
E----------------------------------------------------------------- 
B----------------------------------------------------------------- 
G-7-7-7-7---------4-4-4-4-----------------7-7-7-7----------------- 
D-7-7-7-7-7-7-7-7-4-4-4-4-4-4-4-4-5-5-5-5-7-7-7-7-7-7-7-7-7-7-7-7- 
A-5-5-5-5-7-7-7-7-2-2-2-2-4-4-4-4-5-5-5-5-5-5-5-5-7-7-7-7-7-7-7-7- 
E---------5-5-5-5---------2-2-2-2-3-3-3-3---------5-5-5-5-5-5-5-5- 
 
 
E ASSIM VAI...*DICA: TOCAR COMO SE AS TABLAS FOSSEM POSIÇÕES! 
	  

Search Paypal
auto scroll beats size up size down change color hide chords drawings
tab show chords e-chords YouTube Clip e-chords hide all tabs e-chords go to top tab