Green Day

home > Green Day

Basket Case Bass Tab

Green Day

Difficulty: ExpertExpert

by MoRtE%2D

tuner correct add songbook print version text version save to e-mail
chordsukulelecavacokeyboardtabbassdrummharmonicsflute Guitar Pro
chords

Basket Case

Year: 1994 - Album: Dookie

	  O baixo só entra no final do refrao. Nesta parte: 
G|-------------------------------------|-----9------ 
D|-------------------------------------|------------ 
A|--7-7-6-6-4-4---------------------7--|------------ 
E|--------------5-5-5-5-5-7-7-7-7-7----|------------ 
 
Verso 
G|------------------------------------------------------------------------------| 
D|------------------------------------------------------------------------------| 
A|-7-7-7-7-7-------------4-4-4-4-4------------------------7-7-7-7-7-------------| 
E|------------7-7-7-7-7-------------4-4-4-4-4--5-5-5-5-5-------------7-7-7-7-7--| 
 
Refrao 
G|---------------------------------------------------| 
D|---------------------------------------------------| 
A|--------------------------------7-7-7-7-7-7-7-7----| 
E|--5-5-5-5-5-7-7-7-7-7-7-7-7-7-7--------------------| 
 
Final do refrao 
G|------------------------------------------------------------------| 
D|------------------------------------------------------------------| 
A|-----------------------------7-7-6-6-4-4-------------------7-7----| 
E|-5-5-5-5-5-5-5-5-7-7-7-7-7-7---------------5-5-5-5-7-7-7-7--------| 
 
Pós-refrao            4X 
G|------------------------|------------------------------ 
D|------------------------|------------------------------ 
A|--7-7-4-4-2-2-4-4-------|------------------------------ 
E|------------------------|--5-5-5-5-5-5--7-7-7-7-7-7---- 
 
G|------------------------------------------------------------------------------| 
D|------------------------------------------------------------------------------| 
A|-7-7-7-7-7-------------4-4-4-4-4------------------------7-7-7-7-7-------------| 
E|------------7-7-7-7-7-------------4-4-4-4-4--5-5-5-5-5-------------7-7-7-7-7--| 
 
Refrao 
G|---------------------------------------------------| 
D|---------------------------------------------------| 
A|--------------------------------7-7-7-7-7-7-7-7----| 
E|--5-5-5-5-5-7-7-7-7-7-7-7-7-7-7--------------------| 
 
Final da música                                    x3 
G|----------------------------------------------------I----------------| 
D|----------------------------------------------------I----------------| 
A|---7--7--7--7--7------------------------7--7--------I------7---------| 
E|------------------9--9--9--9--9---5--5--------7--7--I---5-----7------| 
  
 
Contribuição: Raul F. De Luca  
	  

there isn't a video lesson for this song

request
Search
auto scroll beats size up size down change color hide chords drawings
tab show chords e-chords YouTube Clip e-chords hide all tabs e-chords go to top tab