Gorillaz

home > Gorillaz

Feel Good Inc (ver. 2) Tab

Gorillaz

Difficulty: ExpertExpert

tuner correct add songbook print version text version save to e-mail
chordsukulelecavacokeyboardtabbassdrumsharmonicsflute Guitar Pro
chords

Feel Good Inc (ver. 2)

  		Tuning: DADGBE 
 
The guitar part is pretty damn easy but sooo boring and kinda has a tricky rhythm 
 
 
INTRO/VERSE 
Gutiar 1 
 
E|-11----11--------10-10-8-7-8----------|     --11--| 
B|---11----11----------------8-5/7\5----|     ------| 
G|--------------------------------------|X3   ------| 
D|--------------------------------------|     ------| 
A|--------------------------------------|     ------| 
D|--------------------------------------|     ------| 
 
 
BRIDGE 1 
E|---7-7--7--7--7---7-7--7--7--7---5-5--5--5--5---7-7--7--7--7----| 
B|---8-8--8--8--8---7-7--7--7--7---5-5--5--5--5---7-7--7--7--7----| 
G|---9-9--9--9--9---7-7--7--7--7---5-5--5--5--5---7-7--7--7--7----| X4 
D|---9-9--9--9--9---9-9--9--9--9---7-7--7--7--7---9-9--9--9--9----| 
A|---7-7--7--7--7---9-9--9--9--9---7-7--7--7--7---9-9--9--9--9----| 
D|----------------------------------------------------------------| 
 
E|--7-7--7--7--7-| 
B|--7-7--7--7--7-| 
G|--7-7--7--7--7-| X2 
D|--9-9--9--9--9-| 
A|--9-9--9--9--9-| 
D|---------------| 
 
VERSE 
E|-11----11--------10-10-8-7-8----------|   --11--| 
B|---11----11----------------8-5/7\5----|   ------| 
G|--------------------------------------|X6 ------| 
D|--------------------------------------|   ------| 
A|--------------------------------------|   ------| 
D|--------------------------------------|   ------| 
 
   BRIDGE 2 
E|---7-7--7--7--7---7-7--7--7--7---5-5--5--5--5---7-7--7--7--7----| 
B|---8-8--8--8--8---7-7--7--7--7---5-5--5--5--5---7-7--7--7--7----| 
G|---9-9--9--9--9---7-7--7--7--7---5-5--5--5--5---7-7--7--7--7----| X7 
D|---9-9--9--9--9---9-9--9--9--9---7-7--7--7--7---9-9--9--9--9----| 
A|---7-7--7--7--7---9-9--9--9--9---7-7--7--7--7---9-9--9--9--9----| 
D|----------------------------------------------------------------| 
 
E|--7-7--7--7--7-| 
B|--7-7--7--7--7-| 
G|--7-7--7--7--7-| X2 
D|--9-9--9--9--9-| 
A|--9-9--9--9--9-| 
D|---------------| 
 
VERSE 
E|-11---11--------10-10-8-7-8-----------|     --11--| 
B|---11---11----------------8-5/7\5-----|     ------| 
G|--------------------------------------|X4   ------| 
D|--------------------------------------|     ------| 
A|--------------------------------------|     ------| 
D|--------------------------------------|     ------| 
 
That's it for the 1st Guitar, this is the 2nd Guitar and it starts when he says "Have to  
'cuz they don't hold back" 
 
 
E|--14-16-14-13-20--19----14-16-14-13-|     -14-16-14-13-20--19---| 
B|------------------------------------|     ----------------------| 
G|------------------------------------| X3  ----------------------| 
D|------------------------------------|     ----------------------| 
A|------------------------------------|     ----------------------| 
D|------------------------------------|     ----------------------| 
 
E|-7--5-7--5-7--5-7--5-7--5-7--5-7--5-7-5-3----------| 
B|---------------------------------------------------| 
G|---------------------------------------------------| X3 
D|---------------------------------------------------| 
A|---------------------------------------------------| 
D|---------------------------------------------------| 
 
 
E|--7--5-7--5-7--5-7--5-7--5-7--5-7--5-7--5-7--5-7--5-7--5-| 
B|---------------------------------------------------------| 
G|---------------------------------------------------------| 
D|---------------------------------------------------------| 
A|---------------------------------------------------------| 
D|---------------------------------------------------------| 
 
This part doesn't come until the 2nd Bridge 
E|-7--5-7--5-7--5-7--5-7--5-7--5-7--5-7-5-3----------| 
B|---------------------------------------------------| 
G|---------------------------------------------------| X5 
D|---------------------------------------------------| 
A|---------------------------------------------------| 
D|---------------------------------------------------| 
 
E|--7--5-7--5-7--5-7--5-7--5-7--5-7--5-7--5-7--5-7--5-7--5-| 
B|---------------------------------------------------------| 
G|---------------------------------------------------------| 
D|---------------------------------------------------------| 
A|---------------------------------------------------------| 
D|---------------------------------------------------------| 
 
THE END 
 
| /  slide up 
| \  slide down 
| h  hammer-on 
| p  pull-off 
| ~  vibrato 
| +  harmonic 
| x  Mute note 
=============================================================================
	  

Search Paypal
auto scroll beats size up size down change color hide chords drawings
tab show chords e-chords YouTube Clip e-chords hide all tabs e-chords go to top tab